Song name
# A B C D E F G H I J K L M N O P Q R S T U V W X Y Z

Cauterize - Wake To The Sun tab

alright this song is played half step down with drop D. 
I am not sure if this is 100% accurate but it sounds good to me.
please comment and rate.

Intro 
eb|-----------------------------------|
Bb|-----------------------------------|
Gb|--111111111111--11111111111111-----| Play each as many times as needed
Db|---0-0-0-0-0-0---x-x-x-x-x-x-x-----|
Ab|---0-0-0-0-0-0---9-9-9-9-9-9-9-----|    Play the whole thing twice
Db|---0-0-0-0-0-0---------------------|

cont.
Lead part
eb|--------------------------------------------------------|
Bb|--------------------------------------------------------| Play 4 times
Gb|--11---11/13---11--11/13---11--11/13/14/13/11/13--11----|
Db|---x----x/-x----x---x/-x----x---x/-x/-x/-x/-x/-x---x----|
Ab|---9----9/11----9---9/11----9---9/11/12/11/-9/11---9----|
Db|--------------------------------------------------------|

rhythm 
eb|-----------------------------------|
Bb|-----------------------------------|
Gb|-----------------------------------| Play twice
Db|-----00000000000--44444444444------|
Ab|-----00000000000--44444444444------|
Db|-----00000000000--44444444444------|

verse @ 0:23 seconds

eb|-----------------------------------|
Bb|-----------------------------------|
Gb|-----------------------------------| Repeat as needed
Db|---0000000000-4444444444444--------|
Ab|---0000000000-4444444444444--------|
Db|---0000000000-4444444444444--------|
P.M   .......... .............

This is played on top of the part above
@ 0:38 seconds and @0:43
eb|------------------------------------------------------------|
Bb|------------------------------------------------------------|
Gb|---1414141414--1313131313--1111111111--1313131313---11/-----|
Db|----x-x-x-x-x---x-x-x-x-x---x-x-x-x-x---x-x-x-x-x----x/-----|
Ab|---1212121212--1111111111---9-9-9-9-9--1111111111----9/-----|
Db|------------------------------------------------------------|

Chorus
eb|-----------------------------------|
Bb|-----------------------------------|
Gb|-----------------------------------|
Db|----2222--4444--0000--7777--9999---| repeat as needed
Ab|----2222--4444--0000--7777--9999---|
Db|----2222--4444--0000--7777--9999---|

go back to verse
then play the intro again on with a second guitar playing

eb|--------------------------------------------------|
Bb|--------------------------------------------------|
Gb|----11--11-13-11--11-13-11--11-13-14-13-11-13-----|
Db|--------------------------------------------------|
Ab|--------------------------------------------------|
Db|--------------------------------------------------|
P.M     .   .  .  .   .  .  .   .  .  .  .  .  .


after you play that, go to the chorus and finish on......

eb|--------------------------|
Bb|--------------------------|
Gb|--------------------------|
Db|------------4~------------|
Ab|------------4~------------|
Db|------------4~------------|
Tap to rate this tab
# A B C D E F G H I J K L M N O P Q R S T U V W X Y Z