Song name
# A B C D E F G H I J K L M N O P Q R S T U V W X Y Z

Cauterize - Tremble tab

Tabbed by: Angel C.
AIM: ricanslipknotfan
youtube channel : Brokenxforgiveness

Tuning: Drop D
(played with slight distortion)           
e|--------------------------------------------------------------------------|
B|--------------------------------------------------------------------------|
G|--------------------------------------------------------------------------|
D|--------------------------------------------------------------------------|
A|--------------------------------------------------------------------------|
D|3--1-3-1-3-1-6-3--1-3-1-3-1-6-3--1-3-1-3-1-3-6-6--1-6-6-------------------|

(Repeat 2x)
e|--------------------------------------------------------------------------|
B|--------------------------------------------------------------------------|
G|--------------------------------------------------------------------------|
D|3--1-3-1-3-1-6-3--1-3-1-3-1-6-3--1-3-1-3-1-3-6-6--1-6-6-------------------|
A|3--1-3-1-3-1-6-3--1-3-1-3-1-6-3--1-3-1-3-1-3-6-6--1-6-6-------------------|
D|3--1-3-1-3-1-6-3--1-3-1-3-1-6-3--1-3-1-3-1-3-6-6--1-6-6-------------------|
Tap to rate this tab
 
# A B C D E F G H I J K L M N O P Q R S T U V W X Y Z