Song name
# A B C D E F G H I J K L M N O P Q R S T U V W X Y Z

Cavalera Conspiracy - Must Kill tab

Cavalera Conspiracy - Must Kill
Tab: Billybusa (me)
Tuning: Drop B

I'm very sorry for not tabbing the fast solo :/

(#) = Pinch Harmonics
~ = Vibrato
PM = Palm Mute
b = Bend
/ + \ = Slide

Main riff:                                       
C#||-------------------------------------------------------||
G#||-------------------------------------------------------||
E ||*-----------------------------------------------------*||
B ||*--------------(6)------------------------------------*|| x6
F#||---5/6\3/6\5---------0--0--0--0-0-0--0--0--0--0--0-----||
B ||---------------------0--0--0--0-0-0--0--0--0--0--0-----||
                     PM--------------------------->

---------------------------------------||
---------------------------------------||
*-------------------------------------*||
*-------------------------------------*|| x6
---0--2--1--0--5--2--0-0-0-0-0-0-0-0---||
---0--2--1--0--5--2--0-0-0-0-0-0-0-0---||
PM---------------------------------------->
                                     
-------------------------------------------------------||
-------------------------------------------------------||
*-----------------------------------------------------*||
*--------------(6)------------------------------------*|| x6
---5/6\3/6\5---------0--0--0--0-0-0--0--0--0--0--0-----||
---------------------0--0--0--0-0-0--0--0--0--0--0-----||
                     PM--------------------------->

---------------------------------------||
---------------------------------------||
*-------------------------------------*||
*-------------------------------------*|| x6
---0--2--1--0--5--2--0-0-0-0-0-0-0-0---||
---0--2--1--0--5--2--0-0-0-0-0-0-0-0---||
PM---------------------------------------->

Then this:
-----------------------------------------------------------|
-----------------------------------------------------------|
*----------------------------------------------------------|
*----------------------------------------------------------|
---0-0-0--4-4-4--3-3-3--0-0-0--0-0-0--4-4-4--3-3-3--0-0-0--|
---0-0-0--4-4-4--3-3-3--0-0-0--0-0-0--4-4-4--3-3-3--0-0-0--|
PM------------------------------------------------------->

---------------------------------------------------------||
---------------------------------------------------------||
--------------------------------------------------------*||
--------------------------------------------------------*|| x4
--0-0-0--4-4-4--3-3-3--0--0--0-0-0--0--0--0-0-0--0-0-0---||
--0-0-0--4-4-4--3-3-3--0--0--0-0-0--0--0--0-0-0--0-0-0---||
PM----------------------------------------------------->

Main riff again:
-------------------------------------------------------||
-------------------------------------------------------||
*-----------------------------------------------------*||
*--------------(6)------------------------------------*|| x6
---5/6\3/6\5---------0--0--0--0-0-0--0--0--0--0--0-----||
---------------------0--0--0--0-0-0--0--0--0--0--0-----||
                     PM--------------------------->

---------------------------------------||
---------------------------------------||
*-------------------------------------*||
*-------------------------------------*|| x6
---0--2--1--0--5--2--0-0-0-0-0-0-0-0---||
---0--2--1--0--5--2--0-0-0-0-0-0-0-0---||
PM---------------------------------------->

Then this again:
-----------------------------------------------------------|
-----------------------------------------------------------|
*----------------------------------------------------------|
*----------------------------------------------------------|
---0-0-0--4-4-4--3-3-3--0-0-0--0-0-0--4-4-4--3-3-3--0-0-0--|
---0-0-0--4-4-4--3-3-3--0-0-0--0-0-0--4-4-4--3-3-3--0-0-0--|
PM------------------------------------------------------->

---------------------------------------------------------||
---------------------------------------------------------||
--------------------------------------------------------*||
--------------------------------------------------------*||
--0-0-0--4-4-4--3-3-3--0--0--0-0-0--0--0--0-0-0--0-0-0---||
--0-0-0--4-4-4--3-3-3--0--0--0-0-0--0--0--0-0-0--0-0-0---||
PM----------------------------------------------------->

Then a slight variation:
-----------------------------------------------------------|
-----------------------------------------------------------|
*----------------------------------------------------------|
*----------------------------------------------------------|
---0-0-0--2-2-2--1-1-1--0-0-0--0-0-0--2-2-2--1-1-1--0-0-0--|
---0-0-0--2-2-2--1-1-1--0-0-0--0-0-0--2-2-2--1-1-1--0-0-0--|
PM------------------------------------------------------->

---------------------------------------------------------||
---------------------------------------------------------||
--------------------------------------------------------*||
--------------------------------------------------------*||
--0-0-0--2-2-2--1-1-1--0--0--0-0-0--0--0--0-0-0--0-0-0---||
--0-0-0--2-2-2--1-1-1--0--0--0-0-0--0--0--0-0-0--0-0-0---||
PM---------------------------------------------------->

First part of solo:
-------------------------------|--------------------------------------------|
--13b---------11-13-11-10------|--11\10--8--10--8--10--9--8--10--8--6--8--4-|
-------------------------------|--------------------------------------------|
-------------------------------|--------------------------------------------|
-------------------------------|--------------------------------------------|
-------------------------------|--------------------------------------------|
            
--------------(6)~--|
----1-1-1-1-3-------|
--------------------|
--------------------| Sorry I don't know more of the solo there :/
--------------------|
--------------------|
 
Then it's just this for the rest of the song:
--------------------------------------------------------------|----||
--------------------------------------------------------------|----||
--------------------------------------------------------------|----||
--------------------------------------------------------------|----||
--0--2--1--0--5--2--0--2--1--0--5--2--0--0--0--0--0--0--0--0--|----||
--0--2--1--0--5--2--0--2--1--0--5--2--0--0--0--0--0--0--0--0--|----||

Enjoy!
Tap to rate this tab
# A B C D E F G H I J K L M N O P Q R S T U V W X Y Z