Song name
# A B C D E F G H I J K L M N O P Q R S T U V W X Y Z

Cavalera Conspiracy - Hearts Of Darkness tab

-------------------------------------------------------------------------------
                Hearts Of Darkness (All Four Leads) - Cavalera Conspiracy
-------------------------------------------------------------------------------

Tabbed by: Matt Whyte!!! 

Tuning: D-Drop  D-A-d-G-B-e

  /   slide up
  |   tremolo picking
  \   slide down
  h   hammer-on
  p   pull-off
  ~   vibrato
  B   Bend
  R   Release


     First Lead Break:

Count:  1   e   &   a      2   e   &   a      3   e   &   a      4   e   &   a   
   e||---------------------------------------------------------------------------|
   B||-/13|||-------10|||----------11-etc...------8--------------10----------7---|
   G||---------------------------------------------------------------------------|
   d||--------------(Tremolo-------Picking-------Throughout)---------------------|
   A||---------------------------------------------------------------------------|
   D||---------------------------------------------------------------------------|


Count:  1   e   &   a      2   e   &   a      3   e   &   a      4   e   &   a   
   e |---------------------------------------------------------------------------|
   B |----------8-----------------------------7----------------------------------|
   G |-------------------------8--------------------------7p(0-h-7)--------------|
   d |------(Tremolo---------Picking---------Continued)-----------------10-(slow-|
   A |---------------------------------------------------------------------------|
   D |---------------------------------------------------------------------------|


Count:  1   e   &   a      2   e   &   a      3   e   &   a      4   e   &   a   
   e |---------------------------------------------------------------------------|
   B |---------------------------------------------------------------------------|
   G |---------------------7-h-8-p-7---------10-p-9-p-8----------7---------------|
   d |-full----bend)-------------------10-----------------10--------10-p-8-------|
   A |-----------------------------------------------------------------------10--|
   D |---------------------------------------------------------------------------|


Count:  1   e   &   a      2   e   &   a      3   e   &   a      4   e   &   a   
   e |---------------------------------------------------------------------------|
   B |---------------10----------------11-----------------10-----7-h-8-p-7-------|
   G |-----------------------------------------------------------------------8---|
   d |--7---p---0----------8----p---0---------7---p---0------(0)-----------------|
   A |-(tri----pl----et)--(tri-----pl--et)---(tri----pl---et)(&)-----------------|
   D |---------------------------------------------------------------------------|


Count:  1   e   &   a      2   e   &   a      3   e   &   a      4   e   &   a   
   e |---------------------------------------------------------------------------|
   B |--7------------------------------------------------------------------------|
   G |------8-p-7------------------------------------------------5-h-7-p-5-------|
   d |--------------10-----7-h-8-p-7----------7------------------------------8---|
   A |---------------------------------10--------10---9---10---------------------|
   D |---------------------------------------------------------------------------|


Count:  1   e   &   a      2   e   &   a      3   e   &   a      4   e   &   a   
   e |---------------------------------------------------------------------------|
   B |---------------------------------------------------------------------------|
   G |--5------------------7-h-8-p-7----------7----------------------------------|
   d |------8---7---8------------------10---------10--8---7------8---10-/12------|
   A |---------------------------------------------------------------------------|
   D |---------------------------------------------------------------------------|


Count: [1riplet  &riplet   2riplet... etc.....3........&......]  4   e   &   a      
   e |----------------------------------------6--8--10--8--6--8--10--11--8---10/-|
   B |--------7--8--7------------7--8-(9)-10-------------------------------------|
   G |--8-(8)-----------8--7--8--------------------------------------------------|
   d |---------------------------------------------------------------------------|
   A |---------------------------------------------------------------------------|
   D |---------------------------------------------------------------------------|


Count:  1   e   &   a      2   e   &   a      3   e   &   a      4   e   &   a   
   e |-(10)----/20--20-----20-(22-20)-17------17---------------------------------||
   B |--(gliss)--------------B---R---p-------------------------------------------||E
   G |---------------------------------------------------------------------------||N
   d |---------------------------------------------------------------------------||D
   A |---------------------------------------------------------------------------||E
   D |---------------------------------------------------------------------------||




     Second Lead Break:

Count:  1   e   &   a      2   e   &   a      3   e   &   a      4   e   &   a   
   e||--10----------11-------------10--------------------------------------------|
   B||--13-B-(15)---14-B-(16)------13---B----(15)~~--------------10--11--10------|
   G||----------------------------------------------------------------------12---|
         *Harmony Line on 2nd Guitar - (notice only G B & e strings tabbed)*
  *e||--5-----------6--------------5---------------------------------------------|
  *B||--8--B-(10)---9--B-(11)------8----B----(10)--------------------------------|
  *G||---------------------------------------------------------------------------|


Count:  1   e   &   a      2   e   &   a      3   e   &   a      4   e   &   a   
   e |---------------------------------------------------------------------------|
   B |--10-----------------------------------------------------------------------|
   G |------12--11--12-----8---11--8-h-7---p--8-------7--------------------------|
   d |--------------------------------------------10------10-----8---7---7-------|
   A |---------------------------------------------------------------------------|
   D |---------------------------------------------------------------------------|


Count:  1   e   &   a      2   e   &   a      3   e   &   a      4   e   &   a   
   e |--10----------11-------------10--------------------------------------------|
   B |--13-B-(15)---14-B-(16)------13---B----(15)~~---10--11-----10------10------|
   G |---------------------------------------------------------------12------11--|
         *Harmony Line on 2nd Guitar - (notice only G B & e strings tabbed)*
  *e |--5-----------6--------------5---------------------------------------------|
  *B |--8--B-(10)---9--B-(11)------8----B----(10)--------------------------------|
  *G |---------------------------------------------------------------------------|


Count:  1   e   &   a      2   e   &   a      3   e   &   a      4   e   &   a   
   e |------------------------------------------------10-(10)/---17--17--17--17--|
   B |------10--11---------10--11--13--10-----11--13-----------------------------|
   G |--12----------12-----------------------------------------------------------|
   d |---------------------------------------------------------------------------|
   A |---------------------------------------------------------------------------|
   D |---------------------------------------------------------------------------|


Count:  1   e   &   a      2   e   &   a      3   e   &   a      4   e   &   a   
   e |--15--14--15--15-----14------14--14----------------------------------------|
   B |-------------------------15-------------15--13--15--15-----13------13--13--|
   G |---------------------------------------------------------------14----------|
   d |---------------------------------------------------------------------------|
   A |---------------------------------------------------------------------------|
   D |---------------------------------------------------------------------------|


Count:  1   e   &   a      2   e   &   a      3   e   &   a      4   e   triplet   
   e |---------------------------------------------------------------------------|
   B |-------------------------------------------------------------------10-11-13|
   G |--14--12--14--14-----12--11--12--12-----11------11-------------------h--h--|
   d |--------------------------------------------13------13-----12--------------|
   A |---------------------------------------------------------------------------|
   D |---------------------------------------------------------------------------|


        tri-pl-et triplet  tri-pl-et triplet  etc...
Count:  1   e   &   a      2   e   &   a      3   e   &   a      4   e   &   a   
   e |--10-----------------10-----------------10-----------------10-11-/14-------|
   B |-----13-11-10-11-13-----13-11-10-11-13-----13-11-10-11-13------------------|
   G |-------p--p--h--h---------p--p--h--h---------p--p--h--h--------------------|
   d |---------------------------------------------------------------------------|
   A |---------------------------------------------------------------------------|
   D |---------------------------------------------------------------------------|


Count:  1   e   &   a      2   e   &   a      3   e   &   a      4   e   &   a   
   e |---------------------------------------------------------------------------|
   B |--13--11--10---------11--10-------------10---------------------------------|
   G |--------------12-------------12--11---------12--11--8------11--8---7-------|
   d |-----------------------------------------------------------------------10--|
   A |---------------------------------------------------------------------------|
   D |---------------------------------------------------------------------------|


Count:  1   e   &   a      2   e   &   a      3   e   &   a      4   e   &   a   
   e |---------------------------------------------------------------------------||
   B |---------------------------------------------------------------------------||E
   G |--7~~----------------------------------------------------------------------||N
   d |---------------------------------------------------------------------------||D
   A |---------------------------------------------------------------------------||E
   D |---------------------------------------------------------------------------||




     Third Lead Break:

Count:  1   e   &   a      2   e   &   a      3   e   &   a      4   e   &   a   
   e||----------17-------------13-------------15----------12-------------13------|
   B||--13--15------10-----11------11--13---------8---10---------10--11------6---|
   G||---------------------------------------------------------------------------|
   d||---------------------------------------------------------------------------|
   A||---------------------------------------------------------------------------|
   D||---------------------------------------------------------------------------|


Count:  1   e   &   a      2   e   &   a      3   e   &   a      4   e   &   a   
   e |------10-------------12----------8--------------10-------------------------|
   B |--8-------8---10---------5---6----------6---8--------------8---11--13-B(15)|
   G |----------------------------------------------------9----------------------|
   d |---------------------------------------------------------------------------|
   A |---------------------------------------------------------------------------|
   D |---------------------------------------------------------------------------|


Count:  1   e   &   a       2   e   &   a      3   e   &   a      4   e   &   a   
   e |--10-----------------------------------------------------------------------|
   B |------13--10--13-p-12-11------10--10---------------------------------------|
   G |--------------------------12-------------12--10--12--12-----10------10-----|
   d |---------------------------------------------------------------------------|
   A |---------------------------------------------------------------------------|
   D |---------------------------------------------------------------------------|


Count:  1   e   &   a      2   e   &   a      3   e   &   a      4   e   &   a   
   e |---------------------------------------------------------------------------|
   B |---------------------------------------------------------------------------|
   G |--10~~----------------------------------10~~-------------------------------|
   d |----------12--10-----12--12--10-----------------12--10-----12~~------------|
   A |---------------------------------12----------------------------------------|
   D |---------------------------------------------------------------------------|


Count:  1   e   &   a      2   e   &   a      3   e   &   a      4   e   &   a   
   e |---------------------------------------------------------------13--16--13--|
   B |---------------------------------9-----10-p-9-------------/15--------------|
   G |------9--13-p-9----------9---13-----------------13-p-9---sl----------------|
   d |--12-----------------12----------------------------------------------------|
   A |---------------------------------------------------------------------------|
   D |---------------------------------------------------------------------------|


Count:  1   e   &   a      2   e   &   a      3   e   &   a      4   e   &   a   
   e |------13--16-/17-----16-p-13-16-p-13~~-------------------------------------|
   B |--15--------sl---------------------------------15-p-13-----15~~------------|
   G |---------------------------------------------------------------------------|
   d |---------------------------------------------------------------------------|
   A |---------------------------------------------------------------------------|
   D |---------------------------------------------------------------------------|


       Sweep picking in a triplet 3 notes for 2 type format...
Count:  1   e   &   a      2   e   &   a      3   e   &   a      4   e   &   a   
   e |-20(20)13-------------------19(19)13----------------------18(18)13---------|
   B |----------15--------------------------15---------------------------15------|
   G |------------14-----------14--------------14----------14--------------14----|
   d |---------------15-----15--------------------15-----15-------------------15-|
   A |-------------------17---------------------------17-------------------------|
   D |---------------------------------------------------------------------------|


     ...(groups of 6 notes per/downbeat)...   back to 4/4 feel... 
Count:  1   e   &   a      2   e   &   a      3   e   &   a      4   e   &   a   
   e |---------17(17)13-----------------------20--B--(22)---R---(20)-------------||
   B |-------------------15----------------------------------------------19~~----||E
   G |------14--------------14----------14---------------------------------------||N
   d |---15-------------------15-----15------------------------------------------||D
   A |-17-------------------------17---------------------------------------------||E
   D |---------------------------------------------------------------------------||




     Fourth Lead Break:

Count:  1.                 2.                 3.      &          4   e   &   a   
                                                            e||------------------|
                                                            B||--6/---(gliss)----|
                                                            G||--sl--------------|
                                                            d||------------------|
                                                            A||------------------|
                                                            D||------------------|


Count:  1   e   &   a      2   e   &   a     3   e   &   a      4   e   &   a   
   e |------13--13--14---------13--17--13----13--18--13--13-----20--13--13--18---|
   B |-/16B(18)------------16B(18)-----------------------------------------------|
   G |---------------------------------------------------------------------------|
   d |---------------------------------------------------------------------------|
   A |---------------------------------------------------------------------------|
   D |---------------------------------------------------------------------------|


Count:  1   e   &   a      2   e   &   a      3   e   &   a      4   e   &   a   
   e |--13--13--17--13---14p13-----13--------------------------------------------|
   B |-------------------------16------16-----14--13--14--13---------13----------|
   G |-----------------------------------------------------------15------15--14--|
   d |---------------------------------------------------------------------------|
   A |---------------------------------------------------------------------------|
   D |---------------------------------------------------------------------------|


 Note: Count is written differently, (just to fit all the notes in)...

Count:  1.              and             2.              and            
   e |--------------13--14--17--14--13---------------------------------|
   B |--13--14--16----------------------16--14--13---------------------|
   G |----------------------------------------------15--14--11---------|
   d |----------------------------------------------------------15-13--|
   A |-----------------------------------------------------------------|
   D |-----------------------------------------------------------------|


Count:  3.              and             4.              and            
   e |-----------------------------------------------------------------|
   B |-----------------------------------------------------------------|
   G |------------------10--11--14--11--10-----------------------------|
   d |--11--10--11--13----------------------13--11--10-----------------|
   A |--------------------------------------------------13--12--9---8--|
   E |-----------------------------------------------------------------|


Count:  1.              and             2.              and            
   e |-----------------------------------------------------------------|
   B |-----------------------------------------------------------------|
   G |----------------------------------------------------------10--11-|
   d |----------------------------------8---10--11--10--11--13---------|
   A |------------------8-/-9---12--13---------------------------------|
   E |--13--10--11--13---sl--------------------------------------------|


Count:  3.              and             4.              and            
   e |--------------------------11--13--16-----(slow--full--bend)------||
   B |--------------11--13--14-----------------------------------------||
   G |--10--11--14-----------------------------------------------------||
   d |-----------------------------------------------------------------||
   A |-----------------------------------------------------------------||
   E |-----------------------------------------------------------------||


Count:  1   e   &   a      2   e   &   a      3   e   &   a      4   e   &   a   
   e |--18-----(slow--full--bend)------------------------------------------------||
   B |---------------------------------------------------------------------------||E
   G |---------------------------------------------------------------------------||N
   d |---------------------------------------------------------------------------||D
   A |---------------------------------------------------------------------------||E
   D |---------------------------------------------------------------------------||


      (actually tabbed by tonibet - sorry Matti!)
Tap to rate this tab
 
# A B C D E F G H I J K L M N O P Q R S T U V W X Y Z