Song name
# A B C D E F G H I J K L M N O P Q R S T U V W X Y Z

Cavalier King - The Unprotected tab

                                    
Strumming Pattern: D,(D),D gap pause U,D,U,(D),D
( )= only strum the three tabs 

Note: The last two chords transition into each other for the strumming pattern 
( LISTEN VERY CLOSE TO THE SONG )


Intro
e|-------x---------x---------x---------x---------x-----------------|
B|-------5---------7---------3---------10--------12----------------|
G|-------0--(0)----0--(0)----0--(0)----0--(0)----0---(0)-----------|
D|-------5--(5)----7--(7)----2--(2)----9--(9)----12--(12)----------|
A|-------3--(3)----5--(5)----3--(3)----7--(7)----10--(10)----------|
E|-------0---------0---------0---------0---------0-----------------|

Bass 
e|-----------------------------------------|
B|-----------------------------------------|
G|-----------------------------------------|
D|-----------------------------------------|
A|--------------------------------3--------|
E|-------1-----3-----0-----5---------------|




I have tabbed this by ear. Let me know what you think! and help me tab out
the rest!
Tap to rate this tab
# A B C D E F G H I J K L M N O P Q R S T U V W X Y Z