Guitaretab - guitar tabs
Song name
# A B C D E F G H I J K L M N O P Q R S T U V W X Y Z

Cave-in - New Moon tab

Song: New Moon
Artist: Cave In
Album: Jupiter

Gtr 1: Acoustic
Gtr 2: Electric, reverb, overdrive

h: hammer-on
/:slide

INTRO
Gtr 1
Eb-------------------------------------|
Bb-------------------------------------|
Gb--------9--7-7-7---5--4-4-4---7-7----|
Db--------9--7-7-7---5--4-4-4---7-7----|
Ab--------7--5-5-5---3--2-2-2---5-5----|
Eb--5h7-0------------------------------|
[ Tab from: http://www.guitaretab.com/c/cave-in/53157.html ]
MAIN PART
Gtr 1
Eb-----------------------------------------|
Bb-----------------------------------------|
Gb--------9--7-7-7---5--4-4-4---7-7--------|
Db--------9--7-7-7---5--4-4-4---7-7--------|
Ab--------7--5-5-5---3--2-2-2---5-5--------|
Eb--5h7-0----------------------------------|
Gtr 2
Eb-------------------------------------|
Bb-------------------------------------|
Gb-------------------------------------|
Db--------9/-7-------5/-4----/--7------|
Ab-------------------------------------|
Eb-------------------------------------|


Gtr 1
mai riff
Gtr 2
Eb---------|
Bb----3----|
Gb--4------|
Db---------|
Ab---------|
Eb---------|

then bass only
Eb--5h7-0-- (x8)

and then the climax part
Gtr 1
Eb-------------------------------------|
Bb-------------------------------------|
Gb-------------------------------------|
Db-44444--55555--77777--55555-44-------|
Ab-44444--55555--77777--55555-44-------|
Eb-22222--33333--55555--33333-22-------|
Gtr 2
Eb-------------------------------------|
Bb-66666--77777--99999--77777-66-------|
Gb-66666--77777--99999--77777-66-------|
Db-44444--55555--77777--55555-44-------|
Ab-------------------------------------|
Eb-------------------------------------|

Back to main riff
you can figure the rest by yourself, it's not hard. Enjoy!
Related for New Moon tab