Song name
# A B C D E F G H I J K L M N O P Q R S T U V W X Y Z

Cave Story - Balrogs Theme tab

Hey again!

Another Cave Story song I've hammered out.

At the part where it breaks down into power chords, there's this little synth-ish 
lead on top of it.
haven't quite figured it out just yet, but when I do, I'll post it.

-Balrog's Theme-
by Daisuke Amaya a.k.a. Pixel
http://www.miraigamer.net/cavestory/
http://www.cavestory.com/

E|------------------------------------------------------------------------------------------------|
B|------------------------------------------------------------------------------------------------|
G|------------------------------------------------------------------------------------------------|
D|------------------------------------------------------------------------------------------------|
A|--------10----9--9--10--11~~--10--9--8--8--9-------------8----7--7--8--9~~--8--7--6--6--7-------|
E|--8--8---------------------------------------------6--6-----------------------------------------|

E|------------------------------------------------------------------------------------------------|
B|------------------------------------------------------------------------------------------------|
G|------------------------------------------------------------------------------------------------|
D|------------------------------------------------------------------------------------------------|
A|--------10----9--9--10--11~~--10--9--8--8--9-------------8----7--7--8--9~~--8--7--6--6--7-------|
E|--8--8---------------------------------------------6--6-----------------------------------------|

E|------------------------------------------------------------------------------------------------|
B|------------------------------------------------------------------------------------------------|
G|------------------------------------------------------------------------------------------------|
D|--10---10---13-13-13--10---13----16-15-15-15-------10---10---13-13-13--10---13----16-15-15-15---|
A|--10---10---13-13-13--10---13----16-15-15-15-------10---10---13-13-13--10---13----16-15-15-15---|
E|--8----8----11-11-11--8----11----14-13-13-13-------8----8----11-11-11--8----11----14-13-13-13---|

E|------------------------------------------------------------------------------------------------|
B|------------------------------------------------------------------------------------------------|
G|------------------------------------------------------------------------------------------------|
D|--10---10---13-13-13--10---13----16-15-15-15-------10---10---13-13-13--10---13----16-15-15-15---|
A|--10---10---13-13-13--10---13----16-15-15-15-------10---10---13-13-13--10---13----16-15-15-15---|
E|--8----8----11-11-11--8----11----14-13-13-13-------8----8----11-11-11--8----11----14-13-13-13---|

Balrog's Theme, one of the coolest songs in the game, in my opinion.
Have fun playing!

---Cave Tabber
Tap to rate this tab
 
# A B C D E F G H I J K L M N O P Q R S T U V W X Y Z