Song name
# A B C D E F G H I J K L M N O P Q R S T U V W X Y Z

Cave Story - Moonsong tab

Help us improve GuitareTab! Take a short survey!
Song Name: Moonsong
Album: Cave Story Soundtrack
Artist: Pixel

Fretted by: Beasty

This is pritty much the second song I've fretted. To me it sounds perfect, since
I've tested it about 50 times. Try it!

--------
Chorus 1
--------

E|---------------------------------------|
A|--------1---3---------------1---3------|
D|--0---3---------3-----0---3---------3--|
G|---------------------------------------|
B|---------------------------------------|
e|---------------------------------------|

--------
Chorus 2
--------

E|------------------------1--------------------|
A|------1---3---4---3--1------4---3---1--------|
D|--3---------------------------------------3--|
G|---------------------------------------------|
B|---------------------------------------------|
e|---------------------------------------------|

-----
Verse
-----

E|-----------------------------------------------------------------|
A|--------1-----------1--------------------------------------------|
D|--3-----------3-----------3-------0-----3-----0-----3-----0---3--|
G|------------------------------3----------------------------------|
B|-----------------------------------------------------------------|
e|-----------------------------------------------------------------|

Repeat Verse 3 more times, then go back to chorus 1
Related for Moonsong tab