Song name
# A B C D E F G H I J K L M N O P Q R S T U V W X Y Z

Cavo - Champagne tab

e----------------------------------------------------------------|
b----------------------------------------------------------------|
g----10------8---------------------------------------------------|
d-----0------0-------8-----6-------------------------------------|
a-----8------6-------8-----6-------------------------------------|
d--------------------8-----6-------------------------------------|

Guitar 1

e----------------------------------------------------------------|
b----------------------------------------------------------------|
g----------------------------------------------------------------|
d----3-------1-------8------6------------------------------------|
a----3-------1-------8------6------------------------------------|
d----3-------1-------8------6------------------------------------|

Guitar 2
Tap to rate this tab
# A B C D E F G H I J K L M N O P Q R S T U V W X Y Z