Song name
# A B C D E F G H I J K L M N O P Q R S T U V W X Y Z

Cavo - Champagne tab

This is exported from guitar pro 5.
There is a legend at the bottom explaining what all the letters and crap mean.

I have not exported the second guitar because I cannot seem to get the solo at the end correct.
If anyone wants to help me out and tab out the solo at the end... I will add it in 
with the second guitar.


				 Champagne                                     


Cavo

Guitar 1
                      D#7                                      
                      ^                                        
                      W                   E.  E.  Q    Q.      
D#||-------|-------|--0----------------|--0-------------------|
A#||-------|-------|--0----------------|------0---------------|
F#||-------|-------|--3----------------|----------3----L------|
C#||-------|-------|--4----------------|----------------------|
G#||-------|-------|-------------------|----------------------|
D#||-------|-------|-------------------|----------------------|


  ^                                           ^                 
  W                   E.  E.  E  Q.     E     W                 
--0----------------|--0--------------------|--0----------------|
--0----------------|------0----------------|--0----------------|
--3----------------|-------------3------L--|--3----------------|
--4----------------|----------4------------|--4----------------|
-------------------|-----------------------|-------------------|
-------------------|-----------------------|-------------------|


   S  S  S  S  S  S  S  S  S  S  S  S  S  S  S  S  
--------------------------------------------------|
--------------------------------------------------|
--11-11-11-11-11-11-11-11-11-11-11-11-11-11-11-11-|
--------------------------------------------------|
---9--9--9--9--9--9--9--9--9--9--9--9--9--9--9--9-|
--------------------------------------------------|


   S  S  S  S  S  S  S  S  S  S  S  S  S  S  S  S  
--------------------------------------------------|
--------------------------------------------------|
--13-13-13-13-13-13-13-13-13-13-13-13-13-13-13-13-|
--------------------------------------------------|
--11-11-11-11-11-11-11-11-11-11-11-11-11-11-11-11-|
--------------------------------------------------|


  S   S  S  S  S   S  S  S  S  S  S  S  S  S  S  S    E.  E.  E.  E.  E  E   
---------------------------------------------------|------------------------|
---------------------------------------------------|------------------------|
--9S-11-11-11-14S-11-11-11--L-11-11-11-11-11-11-11-|------------------------|
---------------------------------------------------|--2---2---4---4---4--4--|
--7S--9--9--9-12S--9--9--9--L--9--9--9--9--9--9--9-|--2---2---4---4---4--4--|
---------------------------------------------------|------------------------|


  D#7                                                          
  ^                                          ^                 
  W                   E.  E.  Q    Q.        W                 
--0----------------|--0-------------------|--0----------------|
--0----------------|------0---------------|--0----------------|
--3----------------|----------3----L------|--3----------------|
--4----------------|----------------------|--4----------------|
-------------------|----------------------|-------------------|
-------------------|----------------------|-------------------|


                          D#7                                      
                          ^                                        
  E.  E.  E  Q.     E     W                   E.  E.  Q    Q.      
--0--------------------|--0----------------|--0-------------------|
------0----------------|--0----------------|------0---------------|
-------------3------L--|--3----------------|----------3----L------|
----------4------------|--4----------------|----------------------|
-----------------------|-------------------|----------------------|
-----------------------|-------------------|----------------------|


  ^                                                                         
  W                   E.  E.  E  Q.     E     S S S S S S S S S S S S Q     
--0----------------|--0--------------------|-------------------------------|
--0----------------|------0----------------|----------5--------------------|
--3----------------|-------------3------L--|--4---------------6------------|
--4----------------|----------4------------|----4-4-4---4-4-4---4-4-4------|
-------------------|-----------------------|-------------------------------|
-------------------|-----------------------|-------------------------------|


   S  S  S  S  S  S  S  S  S  S  S  S  S  S  S  S  
--------------------------------------------------|
--------------------------------------------------|
--11-11-11-11-11-11-11-11-11-11-11-11-11-11-11-11-|
--------------------------------------------------|
---9--9--9--9--9--9--9--9--9--9--9--9--9--9--9--9-|
--------------------------------------------------|


   S  S  S  S  S  S  S  S  S  S  S  S  S  S  S  S  
--------------------------------------------------|
--------------------------------------------------|
--11-11-11-11-11-11-11-11-11-11-11-11-11-11-11-11-|
--------------------------------------------------|
---9--9--9--9--9--9--9--9--9--9--9--9--9--9--9--9-|
--------------------------------------------------|


  S   S  S  S  S   S  S  S  S  S  S  S  S  S  S  S    E.  E.  E.  E.  E  E   
---------------------------------------------------|------------------------|
---------------------------------------------------|------------------------|
--9S-11-11-11-14S-11-11-11--L-11-11-11-11-11-11-11-|------------------------|
---------------------------------------------------|--2---2---4---4---4--4--|
--7S--9--9--9-12S--9--9--9--L--9--9--9--9--9--9--9-|--2---2---4---4---4--4--|
---------------------------------------------------|------------------------|


   S  S  S  S  S  S  S  S  S  S  S  S  S  S  S  S  
--------------------------------------------------|
--------------------------------------------------|
--11-11-11-11-11-11-11-11-11-11-11-11-11-11-11-11-|
--------------------------------------------------|
---9--9--9--9--9--9--9--9--9--9--9--9--9--9--9--9-|
--------------------------------------------------|


   S  S  S  S  S  S  S  S  S  S  S  S  S  S  S  S  
--------------------------------------------------|
--------------------------------------------------|
--11-11-11-11-11-11-11-11-11-11-11-11-11-11-11-11-|
--------------------------------------------------|
---9--9--9--9--9--9--9--9--9--9--9--9--9--9--9--9-|
--------------------------------------------------|


  S   S  S  S  S   S  S  S  S  S  S  S  S  S  S  S    E.  E.  E.  E.  E  E   
---------------------------------------------------|------------------------|
---------------------------------------------------|------------------------|
--9S-11-11-11-14S-11-11-11--L-11-11-11-11-11-11-11-|------------------------|
---------------------------------------------------|--2---2---4---4---4--4--|
--7S--9--9--9-12S--9--9--9--L--9--9--9--9--9--9--9-|--2---2---4---4---4--4--|
---------------------------------------------------|------------------------|


   S  S  S  S  S  S  S  S  S  S  S  S  S  S  S  S  
--------------------------------------------------|
--------------------------------------------------|
--11-11-11-11-11-11-11-11-11-11-11-11-11-11-11-11-|
--------------------------------------------------|
---9--9--9--9--9--9--9--9--9--9--9--9--9--9--9--9-|
--------------------------------------------------|


   S  S  S  S  S  S  S  S  S  S  S  S  S  S  S  S  
--------------------------------------------------|
--------------------------------------------------|
--13-13-13-13-13-13-13-13-13-13-13-13-13-13-13-13-|
--------------------------------------------------|
--11-11-11-11-11-11-11-11-11-11-11-11-11-11-11-11-|
--------------------------------------------------|


   S  S  S  S  S  S  S  S  S  S  S  S  S  S  S  S  
--------------------------------------------------|
--------------------------------------------------|
--14-14-14-14-14-14-14-14-14-14-14-14-14-14-14-14-|
--------------------------------------------------|
--12-12-12-12-12-12-12-12-12-12-12-12-12-12-12-12-|
--------------------------------------------------|


                                      D#7                                      
                                      ^                                        
   S  S  S  S  S  S  S  S H           W               E.  E.  Q    Q.      
-----------------------------------|--0------------|--0-------------------|
-----------------------------------|--0------------|------0---------------|
--16-16-16-16-16-16-16-16----------|--3------------|----------3----L------|
-----------------------------------|--4------------|----------------------|
--14-14-14-14-14-14-14-14----------|---------------|----------------------|
-----------------------------------|---------------|----------------------|


                                              D#7               
  ^                                           ^                 
  W                   E.  E.  E  Q.     E     W                 
--0----------------|--0--------------------|--0----------------|
--0----------------|------0----------------|--0----------------|
--3----------------|-------------3------L--|--3----------------|
--4----------------|----------4------------|--4----------------|
-------------------|-----------------------|-------------------|
-------------------|-----------------------|-------------------|


                         ^                                                  
  E.  E.  Q    Q.        W                   S S S S S S S S S S S S E  E   
--0-------------------|--0----------------|--------------------------------|
------0---------------|--0----------------|----------5---------------------|
----------3----L------|--3----------------|--4---------------6-------x--x--|
----------------------|--4----------------|----4-4-4---4-4-4---4-4-4-x--x--|
----------------------|-------------------|--------------------------x--x--|
----------------------|-------------------|--------------------------x--x--|


   S  S  S  S  S  S  S  S  S  S  S  S  S  S  S  S  
--------------------------------------------------|
--------------------------------------------------|
--11-11-11-11-11-11-11-11-11-11-11-11-11-11-11-11-|
--------------------------------------------------|
---9--9--9--9--9--9--9--9--9--9--9--9--9--9--9--9-|
--------------------------------------------------|


   S  S  S  S  S  S  S  S  S  S  S  S  S  S  S  S  
--------------------------------------------------|
--------------------------------------------------|
--11-11-11-11-11-11-11-11-11-11-11-11-11-11-11-11-|
--------------------------------------------------|
---9--9--9--9--9--9--9--9--9--9--9--9--9--9--9--9-|
--------------------------------------------------|


  S   S  S  S  S   S  S  S  S  S  S  S  S  S  S  S    E.  E.  E.  E.  E  E   
---------------------------------------------------|------------------------|
---------------------------------------------------|------------------------|
--9S-11-11-11-14S-11-11-11--L-11-11-11-11-11-11-11-|------------------------|
---------------------------------------------------|--2---2---4---4---4--4--|
--7S--9--9--9-12S--9--9--9--L--9--9--9--9--9--9--9-|--2---2---4---4---4--4--|
---------------------------------------------------|------------------------|


   S  S  S  S  S  S  S  S  S  S  S  S  S  S  S  S  
--------------------------------------------------|
--------------------------------------------------|
--11-11-11-11-11-11-11-11-11-11-11-11-11-11-11-11-|
--------------------------------------------------|
---9--9--9--9--9--9--9--9--9--9--9--9--9--9--9--9-|
--------------------------------------------------|


   S  S  S  S  S  S  S  S  S  S  S  S  S  S  S  S  
--------------------------------------------------|
--------------------------------------------------|
--11-11-11-11-11-11-11-11-11-11-11-11-11-11-11-11-|
--------------------------------------------------|
---9--9--9--9--9--9--9--9--9--9--9--9--9--9--9--9-|
--------------------------------------------------|


  S   S  S  S  S   S  S  S  S  S  S  S  S  S  S  S    E.  E.  E.  E.  E  E   
---------------------------------------------------|------------------------|
---------------------------------------------------|------------------------|
--9S-11-11-11-14S-11-11-11--L-11-11-11-11-11-11-11-|------------------------|
---------------------------------------------------|--2---2---4---4---4--4--|
--7S--9--9--9-12S--9--9--9--L--9--9--9--9--9--9--9-|--2---2---4---4---4--4--|
---------------------------------------------------|------------------------|


   S  S  S  S  S  S  S  S  S  S  S  S  S  S  S  S  
--------------------------------------------------|
--------------------------------------------------|
--11-11-11-11-11-11-11-11-11-11-11-11-11-11-11-11-|
--------------------------------------------------|
---9--9--9--9--9--9--9--9--9--9--9--9--9--9--9--9-|
--------------------------------------------------|


   S  S  S  S  S  S  S  S  S  S  S  S  S  S  S  S  
--------------------------------------------------|
--------------------------------------------------|
--13-13-13-13-13-13-13-13-13-13-13-13-13-13-13-13-|
--------------------------------------------------|
--11-11-11-11-11-11-11-11-11-11-11-11-11-11-11-11-|
--------------------------------------------------|


   S  S  S  S  S  S  S  S  S  S  S  S  S  S  S  S  
--------------------------------------------------|
--------------------------------------------------|
--14-14-14-14-14-14-14-14-14-14-14-14-14-14-14-14-|
--------------------------------------------------|
--12-12-12-12-12-12-12-12-12-12-12-12-12-12-12-12-|
--------------------------------------------------|


 E.  E.  E.  E.  E   E     E.  E.  E.  E.  E  E     E.  E.  Q    Q.      
------------------------|------------------------|----------------------|
------------------------|----------0-------------|----------------------|
14--14--14--14--14--14--|------3-------3---L-----|--3---3---------------|
------------------------|--4------------------4--|----------4----L------|
12--12--12--12--12--12--|------------------------|----------------------|
------------------------|------------------------|----------------------|


  E.  E.  E.  E.  E  E     E.  E.  Q    Q.        E.  E.  E.  E.  E  E   
--------------0---------|----------------------|--------------0---------|
----------0-------0-----|------0---------------|----------0-------0-----|
------3--------------3--|--3-------3----L------|------3--------------3--|
--4---------------------|----------------------|--4---------------------|
------------------------|----------------------|------------------------|
------------------------|----------------------|------------------------|


  E.  E.  Q    Q.                          
----------------------|---------|---------|
------0---------------|---------|---------|
--3-------------------|---------|---------|
----------4----L------|---------|---------|
----------------------|---------|---------|
----------------------|---------|---------|


   S  S  S  S  S  S  S  S  S  S  S  S  S  S  S  S  
--------------------------------------------------|
--------------------------------------------------|
--11-11-11-11-11-11-11-11-11-11-11-11-11-11-11-11-|
--------------------------------------------------|
---9--9--9--9--9--9--9--9--9--9--9--9--9--9--9--9-|
--------------------------------------------------|


   S  S  S  S  S  S  S  S  S  S  S  S  S  S  S  S  
--------------------------------------------------|
--------------------------------------------------|
--11-11-11-11-11-11-11-11-11-11-11-11-11-11-11-11-|
--------------------------------------------------|
---9--9--9--9--9--9--9--9--9--9--9--9--9--9--9--9-|
--------------------------------------------------|


  S   S  S  S  S   S  S  S  S  S  S  S  S  S  S  S    E.  E.  E.  E.  E  E   
---------------------------------------------------|------------------------|
---------------------------------------------------|------------------------|
--9S-11-11-11-14S-11-11-11--L-11-11-11-11-11-11-11-|------------------------|
---------------------------------------------------|--2---2---4---4---4--4--|
--7S--9--9--9-12S--9--9--9--L--9--9--9--9--9--9--9-|--2---2---4---4---4--4--|
---------------------------------------------------|------------------------|


   S  S  S  S  S  S  S  S  S  S  S  S  S  S  S  S  
--------------------------------------------------|
--------------------------------------------------|
--11-11-11-11-11-11-11-11-11-11-11-11-11-11-11-11-|
--------------------------------------------------|
---9--9--9--9--9--9--9--9--9--9--9--9--9--9--9--9-|
--------------------------------------------------|


   S  S  S  S  S  S  S  S  S  S  S  S  S  S  S  S  
--------------------------------------------------|
--------------------------------------------------|
--11-11-11-11-11-11-11-11-11-11-11-11-11-11-11-11-|
--------------------------------------------------|
---9--9--9--9--9--9--9--9--9--9--9--9--9--9--9--9-|
--------------------------------------------------|


  S   S  S  S  S   S  S  S  S  S  S  S  S  S  S  S    E.  E.  E.  E.  E  E   
---------------------------------------------------|------------------------|
---------------------------------------------------|------------------------|
--9S-11-11-11-14S-11-11-11--L-11-11-11-11-11-11-11-|------------------------|
---------------------------------------------------|--2---2---4---4---4--4--|
--7S--9--9--9-12S--9--9--9--L--9--9--9--9--9--9--9-|--2---2---4---4---4--4--|
---------------------------------------------------|------------------------|


   S  S  S  S  S  S  S  S  S  S  S  S  S  S  S  S  
--------------------------------------------------|
--------------------------------------------------|
--11-11-11-11-11-11-11-11-11-11-11-11-11-11-11-11-|
--------------------------------------------------|
---9--9--9--9--9--9--9--9--9--9--9--9--9--9--9--9-|
--------------------------------------------------|


   S  S  S  S  S  S  S  S  S  S  S  S  S  S  S  S             
--------------------------------------------------|----|----||
--------------------------------------------------|----|----||
--13-13-13-13-13-13-13-13-13-13-13-13-13-13-13-13-|----|----||
--------------------------------------------------|----|----||
--11-11-11-11-11-11-11-11-11-11-11-11-11-11-11-11-|----|----||
--------------------------------------------------|----|----||




Duration Legend
---------------
W - whole
H - half
Q - quarter
E - 8th
S - 16th
T - 32nd
X - 64th
. - note dotted
|-n-|  - n-tuplets


Tablature Legend
----------------
L - tied note
x - dead note
g - grace note
(n) - ghost note
> - accentuded note
NH - natural harmonic
AH - artificial harmonic
TH - tapped harmonic
SH - semi harmonic
PH - pitch harmonic
h - hammer on
p - pull off
b - bend
br - bendRelease
pb - preBend
pbr - preBendRelease
brb - bendReleaseBend
\n/ - tremolo bar dip
\n - tremolo bar dive
-/n - tremolo bar Release up
/n\ - tremolo bar inverted dip
/n - tremolo bar return
-\n - tremolo bar Release down
S - shift slide
s - legato slide
/ -  slide into from below or out of upwards
\ -  slide into from above or out of downwards
~ - vibrato
W - wide vibrato
tr - trill
TP - tremolo picking
T - tapping
S - slap
P - pop
< - fade in
^ - brush up
v - brush down
Tap to rate this tab
 
# A B C D E F G H I J K L M N O P Q R S T U V W X Y Z