Song name
# A B C D E F G H I J K L M N O P Q R S T U V W X Y Z

Cavo - Let It Go tab

Intro

D#-------------------------------------|
A#----12----11----12--------12----11---|
F#-11---11----11----11---11---11-------|
C#9--9----9-----9-----9-9--9----9------|
G#-------------------------------------|
D#-------------------------------------|

Verse

D#-----------------------------------------------------------|
A#-----------------------------------------------------------|
F#4444444444444444----4r3-4----------------------------------|  X2
C#4444444444444444-------4-----------------------------------|
G#2222222222222222------------------------2224442222222222---|
D#--------------------------444444444444--0000000000000000---|
   Palm mute                  Palm Mute

D#-----------------------------------------------------------|
A#-----------------------------------------------------------|
F#4444-4444-4444-4444-4444-4444-4444-4444-444-666-888-666666-|
C#4444-4444-4444-4444-4444-4444-4444-4444-***-***-***-****---|
G#2222-4444-6666-7777-****-****-2222-4444-222-444-666-444444-|
D#--------------------4444-6666------------------------------|
   pm   pm   pm   pm   pm    pm   pm  pm    up/down strum

D#-------------------|
A#-------------------|
F#444-666-888-666666-|
C#***-***-***-******
G#222-444-666-444444-|
D#-------------------|
   up/down strum

Chorus

D#0000000000000000-0000000000000000----------------------------------------|
A#0000000000000000-0000000000000000----------------------------------------|
F#4444444444444444-4444444444444444-444-666-888-666666-444-666-888-777777--| X2
C#4444444444444444-4444444444444444-***-***-***-******-***-***-***-****----|
G#2222222222222222-****************-222-444-666-444444-222-444-888-555555--|
D#-----------------4444444444444444----------------------------------------|

Solo

D#------------12/14-12-11-12-12-12-12-12-12-12-12-12-12-12-12-12-12-12-12/14-|
A#---------------------------------------------------------------------------|
F#4-6-8-6-6/8-4--------------------------------------------------------------|
C#---------------------------------------------------------------------------|
G#---------------------------------------------------------------------------|
D#---------------------------------------------------------------------------|

D#--------------------------------------------------------------------------|
A#11-12------------12----11---12----------12----11---12----14-12-11-12------|
F#-----9--------------11---11---11----------11----11---11-------------11----|
C#------11br-9-9-9------9----9----9--9-9-9----9-----9----9------------------|
G#--------------------------------------------------------------------------|
D#--------------------------------------------------------------------------|

D#---------14---14--------|
A#14-12-14b--14b--12------|
F#------------------------|
C#------------------------|
G#------------------------|
D#------------------------|
Tap to rate this tab
# A B C D E F G H I J K L M N O P Q R S T U V W X Y Z