Song name
# A B C D E F G H I J K L M N O P Q R S T U V W X Y Z

Cayucas - High School Lover tab

Band = Cayucas http://cayucas.com/
Song = High School Lover

**First tab. Pretty sure its how they played it @ SXSW 2013. 
But there is only one video on youtube. The chorus may be a little off.
Please let me know if you have suggestions. Thanks**

Verse-

e|-------------------------------------|
B|--7----------------------------------|
G|--8----------------------------------|
D|--9----------------------------------|
A|--9----------------------------------|
E|-------------------------------------| x12

Bridge-

e|--------------------6-6-6-6-6-6-6-6--|
B|--------------------6-6-6-6-6-6-6-6--|
G|--------------------7-7-7-7-7-7-7-7--|
D|--------------------8-8-8-8-8-8-8-8--|
A|--------------------8-8-8-8-8-8-8-8--|
E|--------------------6-6-6-6-6-6-6-6--| x1

Chorus -

e|-------------------------------------|
B|-------------------------------------|
G|-------------------------------------|
D|-------------------------------------|
A|----8---------------7----------------|
E|-8----6\2--2-4--4/7---5--7-7---3/8---| 
Tap to rate this tab
 
# A B C D E F G H I J K L M N O P Q R S T U V W X Y Z