Song name
# A B C D E F G H I J K L M N O P Q R S T U V W X Y Z

Cazals - To Cut A Long Story Short tab

-------------------------------------------------------------------------------
			     To Cut A Long Story Short - Cazals
-------------------------------------------------------------------------------
Tabbed by: Danny

Riff
e|----------------------------------------------------------------------------------|
B|----------------------------------------------------------------------------------|
G|----------------------------------------------------------------------------------|
D|-------------10-9-------------5-5-------------------------------------------------|
A|---0--12--10------12-10--7-7------5-5-7-7-----------------------------------------|
E|----------------------------------------------------------------------------------|X4

Verse 1 (Mute / Dampen Strings with Right Hand Palm)
e|-------------------------------------------------------------------------------|
B|-------------------------------------------------------------------------------|
G|-------------------------------------------------------------------------------|
D|-------------10-9--------------------------------------------------------------|
A|------12--10------12-10--------------------------------------------------------|
E|-------------------------------------------------------------------------------|

Bridge
e|-----------------------------------------------------------------------------|
B|-----------------------------------------------------------------------------|
G|-------------------2-2-2-2-2-2-2-2-4-4-4-4-4-4-4-4-9-9-9-9-9-9-9-9-----------|
D|--5-5-5-5-5-5-5-5------------------------------------------------------------|
A|-----------------------------------------------------------------------------|
E|-----------------------------------------------------------------------------|

e|------------------------------------------------------------------------------|
B|------------------------------------------------------------------------------|
G|--12-12-12-12-12-12-12-12-14-14-14-14-14-14-14-14-----------------------------|
D|------------------------------------------------------------------------------|
A|------------------------------------------------------------------------------|
E|------------------------------------------------------------------------------|

Riff
e|----------------------------------------------------------------------------------|
B|----------------------------------------------------------------------------------|
G|----------------------------------------------------------------------------------|
D|-------------10-9-------------5-5-------------------------------------------------|
A|---0--12--10------12-10--7-7------5-5-7-7-----------------------------------------|
E|----------------------------------------------------------------------------------|X4

Verse 2

(Mute / Dampen Strings with Right Hand Palm for first half of riff)
e|---------------------------------------------------------------------------------|
B|---------------------------------------------------------------------------------|
G|---------------------------------------------------------------------------------|
D|-------------10-9-------------5-5------------------------------------------------|
A|------12--10------12-10--7-7-----5-5-7-7-----------------------------------------|
E|---------------------------------------------------------------------------------|

Bridge again then riff it till the end which is;

e|-----------------------------------------------------------------------------|
B|-----------------------------------------------------------------------------|
G|-----------------------------------------------------------------------------|
D|---------------------2-------------------------------------------------------|
A|--7--5--3--5--3--3--2--------------------------------------------------------|
E|--5--3--1--3--1--1------5--3--1--3--0-0-3-0-3--------------------------------|

e|---------------------------------------------------5-------------------------------|
B|---------------------------------------------------5-------------------------------|
G|---------------------------------------------------5-------------------------------|
D|-------------10-9-------------5-5-----------------7--------------------------------|
A|---0--12--10------12-10--7-7------5-5-7-7----0-------------------------------------|
E|-----------------------------------------------------------------------------------|

You can download our demo of this Spandau Ballet track off our website www.cazals.co.uk 
hope this makes sense.


| /  slide up
|   slide down
| h  hammer-on
| p  pull-off
| ~  vibrato
| +  harmonic
| x  Mute note
===============================================================================
Tap to rate this tab
# A B C D E F G H I J K L M N O P Q R S T U V W X Y Z