Song name
# A B C D E F G H I J K L M N O P Q R S T U V W X Y Z

Cazals - A Crying Shame tab

-------------------------------------------------------------------------------
			     A Crying Shame - Cazals
-------------------------------------------------------------------------------
Tabbed by: Danny
Email:

Tuning:

Intro
e|--7-7-7--7-7-7--5-5-5------------------------------------------------------------|
B|--9-9-9--7-7-7--5-5-5------------------------------------------------------------|
G|--9-9-9--8-8-8--6-6-6------------------------------------------------------------|
D|---------------------------------------------------------------------------------|
A|---------------------------------------------------------------------------------|
E|---------------------------------------------------------------------------------| x2
Verse w/ tremolo effect
e|---7-----7------5--------7-----7-----5---------------------------------------------|
B|---7-----7------5--------7-----7-----5---------------------------------------------|
G|---9-----8------6--------9-----8-----6---------------------------------------------|
D|-----------------------------------------------------------------------------------|
A|-----------------------------------------------------------------------------------|
E|-----------------------------------------------------------------------------------|

Bridge (ends slightly diff. each time this is the first bridge)

e|---9-9--9--12-11-9-------7-7-9-5--5-5-5---------------------------------------|
B|---9-9--9-----------12---7-7-7-7--5-5-7-9-------------------------------------|
G|---9-9--9----------------8-8-8-8--6-6-6-6-------------------------------------|
D|------------------------------------------------------------------------------|
A|------------------------------------------------------------------------------|
E|------------------------------------------------------------------------------|

e|---9-9--9--12-11-9-------7-7-9-5--5-5-----12----12--5-5-----12----12---------|
B|---9-9--9-----------12---7-7-7-7--5-5---------------5-5----------------------|
G|---9-9--9----------------8-8-8-8--6-6--14----14-----6-6--14----14------------|
D|-----------------------------------------------------------------------------|
A|-----------------------------------------------------------------------------|
E|-----------------------------------------------------------------------------|

Chorus
w/distortion
e|---------------------------------------------------------------------------------|
B|-------12-----12-----12-----12-----12----------------14-12--------------14-12----|
G|--8/9-----8/9----8/9----8/9----8/9-------------11-13--------------11-13----------|
D|-----------------------------------------11-14--------------11-14----------------|
A|---------------------------------------------------------------------------------|
E|---------------------------------------------------------------------------------|

Solo
w/distortion                                                                + (pinch harm.)
e|--12---------------------------------------12--------------------------------------|
B|-----10-12------------------------------------10-12--------------------------------|
G|-----------9-11----------------9--------------------9-11----------------9----------|
D|----------------9-11------9-11---------------------------9-11------9-11------------|
A|---------------------9-11-------------------------------------9-11-----------------|
E|-----------------------------------------------------------------------------------|

e|---4--------7--------9---------12-------------------------------------------------|
B|-----7-5-7----9-7-9---10-9-10----10-9-10------------------------------------------|
G|----------------------------------------------------------------------------------|
D|----------------------------------------------------------------------------------|
A|----------------------------------------------------------------------------------|
E|----------------------------------------------------------------------------------|

e|---4--------7--------9---------12/-\------------------------------------------|
B|-----7-5-7----9-7-9---10-9-10-------------------------------------------------|
G|------------------------------------------------------------------------------|
D|------------------------------------------------------------------------------|
A|------------------------------------------------------------------------------|
E|------------------------------------------------------------------------------|

Outro

e|-----------------------------------------------------------------------------|
B|---12-12-12-12-14-14-14-16-16-16-17------------------------------------------|
G|-----------------------------------------------------------------------------|
D|-----------------------------------------------------------------------------|
A|-----------------------------------------------------------------------------|
E|-----------------------------------------------------------------------------|
You can find a xfm radio session version of the track at www.cazals.co.uk.


| /  slide up
| \  slide down
| h  hammer-on
| p  pull-off
| ~  vibrato
| +  harmonic
| x  Mute note
===============================================================================
Tap to rate this tab
# A B C D E F G H I J K L M N O P Q R S T U V W X Y Z