Song name
# A B C D E F G H I J K L M N O P Q R S T U V W X Y Z

Cazals - Poor Innocent Boys tab

-------------------------------------------------------------------------------
			     Poor Innocent Boys - Cazals
-------------------------------------------------------------------------------
Tabbed by: Danny

RIFF:
e|-----------------------------------------------------------------------------|
B|-----------------------------------------------------------------------------|
G|-----------------------------------------------------------------------------|
D|------9-9-7-7-9-9-------9-9-7-7-9-9------9-9-7-7-9-9-9b10-9p7-5-7-5-4--------|
A|--7 7---------------7-7---------------7-7--------------------------------5---|
E|-----------------------------------------------------------------------------|

VERSE ( In between bass line)
e|-------------------------------------------------------------------------------|
B|-------------------------------------------------------------------------------|
G|-------------------------------------------------------------------------------|
D|---9--9--10--5--7--------------------------------------------------------------|
A|---7--10-12--7--9--------------------------------------------------------------|
E|-------------------------------------------------------------------------------|

FIRST CHORUS
e|--7--7--7--7--7--5--5--5----------------------------------------------------------|
B|--5--5--5--5--5--5--8--5--12-12-12-12---------------------------------------------|
G|--5--5--5--5--5--5--5--5--12-12-12-12---------------------------------------------|
D|---------------------------12-12-12-12--------------------------------------------|
A|----------------------------------------------------------------------------------|
E|----------------------------------------------------------------------------------|

e|--7--7--7--7--7--5--5--5--------------------------------------------------------|
B|--5--5--5--5--5--5--8--5--12-12-12-15-15-13-13-12-12----------------------------|
G|--5--5--5--5--5--5--5--5--12-12-12-12-12-12-12-12-12----------------------------|
D|---------------------------12-12-12-12-12-12-12-12-12---------------------------|
A|--------------------------------------------------------------------------------|
E|--------------------------------------------------------------------------------|

e|--7--7--7--7--7--5--5--5----------------------------------------------------------|
B|--5--5--5--5--5--5--8--5--12-12-12-12---------------------------------------------|
G|--5--5--5--5--5--5--5--5--12-12-12-12---------------------------------------------|
D|---------------------------12-12-12-12--------------------------------------------|
A|----------------------------------------------------------------------------------|
E|----------------------------------------------------------------------------------|

e|--7--7--7--7--7--5--5--5-------------------------------------------------------|
B|--5--5--5--5--5--5--8--5-------------------------------------------------------|
G|--5--5--5--5--5--5--5--5--4-4-4-4-4-4-4----------------------------------------|
D|---------------------------4-4-4-4-4-4-4---------------------------------------|
A|---------------------------2-2-2-2-0-x-x---------------------------------------|
E|--------------------------------------3-2--------------------------------------|

VERSE 2
e|-------------------------------------------------------------------------------|
B|-------------------------------------------------------------------------------|
G|-------------------------------------------------------------------------------|
D|---9--9--10--5--7--------------------------------------------------------------|
A|---7--10-12--7--9--------------------------------------------------------------|
E|-------------------------------------------------------------------------------|

OUTRO CHORUS
e|----------------------------------------------------------------------------------|
B|---3-3-3--8-8--10--10--5--5--8--8-------------------------------------------------|
G|---4-4-4--7-7--9---9---4--4--7--7-------------------------------------------------|
D|----------5-5--7---7---2--2--5--5-------------------------------------------------|
A|----------5-5--7---7---2--2--5--5-------------------------------------------------|
E|----------------------------------------------------------------------------------|


e|-----------------------------------------------------------------------------|
B|-----8-8--10--10--5--5--8--8-------------------------------------------------|
G|-----7-7--9---9---4--4--7--7-------------------------------------------------|
D|-----5-5--7---7---2--2--5--5-------------------------------------------------|
A|-----5-5--7---7---2--2--5--5-------------------------------------------------|
E|-----------------------------------------------------------------------------|

e|--------------------------------------------------------------------------------|
B|-----8-8--10--10----------------------------------------------------------------|
G|-----7-7--9---9---4--4--4-4-4-4-------------------------------------------------|
D|-----5-5--7---7---4--4--4-4-4-4-------------------------------------------------|
A|-----5-5--7---7---2--2--2-0-x-x-------------------------------------------------|
E|-----------------------------3-2-0----------------------------------------------|


I haven't put in all the strumming as theres a lot of it and i'm lazy but this should 
make sense when playing with the track.

| /  slide up
|   slide down
| h  hammer-on
| p  pull-off
| ~  vibrato
| +  harmonic
| x  Mute note
===============================================================================
Tap to rate this tab
# A B C D E F G H I J K L M N O P Q R S T U V W X Y Z