Song name
# A B C D E F G H I J K L M N O P Q R S T U V W X Y Z

Cazals - Comfortable Silence tab

-------------------------------------------------------------------------------
			     COMFORTABLE SILENCE - CAZALS
-------------------------------------------------------------------------------
Tabbed by: Danny

Intro Riff
e|-----------------------------------------------------------------------------|
B|-----------------------------------------------------------------------------|
G|---14p12h14b16-12p9----9--------12-----12p9----9-----------------12----------|
D|---------------------10---10--------10-------10---10-9-10---12-------10------|
A|------------------------------12---------------------------8----10-----------|
E|-----------------------------------------------------------------------------|

e|---------------------------------------------------------------------------------|
B|---------------------------------------------------------------------------------|
G|--12p9----9--------14p12h14b16---------------------------------------------------|
D|-------10---10-------------------------------------------------------------------|
A|---------------12----------------------------------------------------------------|
E|---------------------------------------------------------------------------------|

Verse
e|-----8-8--8-8--8-8--3-3---8-8--8-8--8-8--3-3--5-5--5-5--5-5--3-3-------------|
B|-----5-5--5-5--5-5--3-3---5-5--5-5--5-5--3-3--6-6--6-6--6-6--3-3-------------|
G|-----------------------------------------------------------------------------|
D|-----------------------------------------------------------------------------|
A|-----------------------------------------------------------------------------|
E|-----------------------------------------------------------------------------|

e|--------------------------------------------------------------------------------|
B|----6-6--6-6--6-6--6-6----------------------------------------------------------|
G|----5-5--5-5--7-7--7-7----------------------------------------------------------|
D|--------------------------------------------------------------------------------|
A|--------------------------------------------------------------------------------|
E|--------------------------------------------------------------------------------|

Bridge (played with right hand palm muting strings)
e|--------------------------------------------------------------------------------|
B|--------------------------------------------------------------------------------|
G|--------9-----12--9----------9-----12--9----------------------------------------|
D|----10----10---------10--10----10--------10-------------------------------------|
A|--------------------------------------------------------------------------------|
E|---------------------------------------------------------------------------|X 2-|

e|-----------------------------------------------------------------------------|
B|-----------------------------------------------------------------------------|
G|-------10--10--9--------------10--10--9--------------------------------------|
D|---10-------------12--10--10-------------12--10--10--------------------------|
A|-----------------------------------------------------------------------------|
E|-----------------------------------------------------------------------------|

e|------------------------------------------------------------------------------|
B|------------------------------------------------------------------------------|
G|--------9-----12--9----------9-----12--9--------------------------------------|
D|----10----10---------10--10----10--------10-----------------------------------|
A|------------------------------------------------------------------------------|
E|------------------------------------------------------------------------------|

Chorus
e|------------------------------------------------------------------------------|
B|------------------------------------------------------------------------------|
G|------------------------------------------------------------------------------|
D|---5--5-5----3--5--5----------------------------------------------------------|
A|---3--0-32--3--5--3-----------------------------------------------------------|
E|-------------1--3-------------------------------------------------------------|

Riff 2
e|-----------------------------------------------------------------------------|
B|-----------------------------------------------------------------------------|
G|---14p12h14b16-12p9----9--------12-----12p9----9-----------------12----------|
D|---------------------10---10--------10-------10---10-9-10---12-------10------|
A|------------------------------12---------------------------8----10-----------|
E|-----------------------------------------------------------------------------|

Verse 2, Bridge and chorus 2 as above

Outro Riff
e|-----------------------------------------------------------------------------|
B|-----------------------------------------------------------------------------|
G|---14p12h14b16-12p9----9--------12-----12p9----9-----------------12----------|
D|---------------------10---10--------10-------10---10-9-10---12-------10------|
A|------------------------------12---------------------------8----10-----------|
E|-----------------------------------------------------------------------------|

e|-----------------------------------------------------------------------------|
B|-----------------------------------------------------------------------------|
G|--12p9----9--------14p12h14b16---12p9----9---------12------------------------|
D|-------10---10-------------------------10---10-9-------10--------------------|
A|---------------12---------------------------------12-------------------------|
E|-----------------------------------------------------------------------------|


e|-----------------------------------------------------------------------------------|
B|-----------------------------------------------------------------------------------|
G|--12p9----9--------12------12p9----9---------12------------------------------------|
D|-------10---10-9------10--------10---10-9-------10---------------------------------|
A|-----------------12------------------------12----------8-7-------------------------|
E|-------------------------------------------------------------10--8-----------------|


This is the new single version which has a different intro to the demo version other 
that its all the same. You can hear the single version with the video on our website 
or you could buy the single!

| /  slide up
|   slide down
| h  hammer-on
| p  pull-off
| ~  vibrato
| +  harmonic
| x  Mute note
===============================================================================
Tap to rate this tab
 
# A B C D E F G H I J K L M N O P Q R S T U V W X Y Z