Song name
# A B C D E F G H I J K L M N O P Q R S T U V W X Y Z

Cazals - Cost tab

-------------------------------------------------------------------------------
			     Cost - Cazals
-------------------------------------------------------------------------------
Tabbed by: Danny

Intro
e|--------------------------------------------------------------------------------|
B|--------------------------------------------------------------------------------|
G|---10--10--10-7-5-7-10--12--12--12--10------------------------------------------|
D|--------------------------------------------------------------------------------|
A|---8---8---8--5-3-5-8---10--10--10--8-------------------------------------------|
E|--------------------------------------------------------------------------------|

Verse

e|--------------1----1-----------------------------------------------------------|
B|----6----6---------------------------------------------------------------------|
G|--5--5-3--3-2--2-0--0------5----5----5-----------------------------------------|
D|-------------------------3----3----3-------------------------------------------|
A|-------------------------------------------------------------------------------|
E|-------------------------------------------------------------------------------|

(about 30 seconds in)
e|-------------------------------------------------------------------------------|
B|--------------8-----------------------8----------------------------------------|
G|---10--7---------9--------10--7---------9--------------------------------------|
D|----------10--------10-----------10--------10----------------------------------|
A|-------------------------------------------------------------------------------|
E|-------------------------------------------------------------------------------|X2

e|--------------------------------------------------------------------------------|
B|-------------8------------------------------------------8-----------------------|
G|--10--7---------9---------------------------10--7---------9---------------------|
D|---------10--------10--8--7--------------7---------10-------10--8--7------------|
A|------------------------------10--8--10-------------------------------10--8--10-|
E|--------------------------------------------------------------------------------|

Chorus
e|--------------------------------------------------------------------------------|
B|--------------------------------------------------------------------------------|
G|--------------------------------------------------------------------------------|
D|--7-7-7-7-7-5-5-5-5-5-----------------------------------------------------------|
A|-----------------------8-8-8-8-8--3-3--5-5--------------------------------------|
E|---------------------------------------------------------------------------|X 4-|

Solo
e|---13-12----15----13-12----15--------13-12----15---13-12-------------------------|
B|---------13----13-------13----13------------13---13-------13-15------------------|
G|----------------------------------14-----------------------------12-14-----------|
D|-----------------------------------------------------------------------12-15-----|
A|---------------------------------------------------------------------------------|
E|---------------------------------------------------------------------------------|

Verse 2 as above

Outro Chorus
e|-----13------13----------15-----15---------17---------17---------17---------17------|
B|--------13------13---------15-----15---------17---------17---------17--------17-----|
G|--14------14------14--16-----16-----16--17----17--17-----17--17-----17--17---17-----|
D|------------------------------------------------------------------------------------|
A|------------------------------------------------------------------------------------|
E|-------------------------------------------------------------------------------|X 4-|

e|-13--------------13---13-----------------------------------------------------------|
B|-13-----------13---13--------------------------------------------------------------|
G|-14-------14-----------------------------------------------------------------------|
D|-15----15--------------------------------------------------------------------------|
A|-----------------------------------------------------------------------------------|
E|-----------------------------------------------------------------------------------|

This is the B-side to Comfortable Silence you can probably download from some site like 
for free or you could buy the single!


| /  slide up
|   slide down
| h  hammer-on
| p  pull-off
| ~  vibrato
| +  harmonic
| x  Mute note
===============================================================================
Tap to rate this tab
# A B C D E F G H I J K L M N O P Q R S T U V W X Y Z