Song name
# A B C D E F G H I J K L M N O P Q R S T U V W X Y Z

Cazals - New Boy In Town tab

-------------------------------------------------------------------------------
			     New Boy In Town - Cazals
-------------------------------------------------------------------------------
Tabbed by: Danny

Intro
e|-------------------------------------------------------------------------------|
B|-------------------------------12-12-12--13-13-13--12-12-12--17-17-17----------|
G|--12-12-10-9-----12-12-10-9----------------------------------------------------|
D|--14-14-12-10----14-14-12-10---------------------------------------------------|
A|-------------------------------10-10-10--12-12-12--10-10-10--15-15-15----------|
E|-------------------------------------------------------------------------------|
Verse
e|-------------------------------------------------------------------------------|
B|-------------------------------------------------------------------------------|
G|-------------------------------------------------------------------------------|
D|--5-----5----5-----7--7-----5-----5----5----7--7-------------------------------|
A|----7-7--7-7---7-7--8---8-----7-7--7-7--7-7--8--8------------------------------|
E|-------------------------------------------------------------------------------|

e|------------------------------------------------------------------------------|
B|------------------------------------------------------------------------------|
G|------------------------------------------------------------------------------|
D|--10-------10----------12-12-12-10-9----10------10----------12-12-12-10-9-----|
A|-----12-12----12-12/14---------------10----12-12---12-12/14---------------10--|
E|------------------------------------------------------------------------------|

Bridge (same as intro)

Chorus
e|-------------------------------------------------------------------------------|
B|-------------------------------------------------------------------------------|
G|-------------------------------------------------------------------------------|
D|--5-----5----5-----7--7-----5-----5----5----7--7-------------------------------|
A|----7-7--7-7---7-7--8---8-----7-7--7-7--7-7--8--8------------------------------|
E|-------------------------------------------------------------------------------|

Verse 2 (as above)

Bridge 2
e|-------------------------------------------------------------------------------|
B|-------------------------------12-12-12--13-13-13--12-10-8-6-5-3---------------|
G|--12-12-10-9-----12-12-10-9----------------------------------------------------|
D|--14-14-12-10----14-14-12-10---------------------------------------------------|
A|-------------------------------10-10-10--12-12-12--10-8--7-5-3-2---------------|
E|-------------------------------------------------------------------------------|

Chorus (as above)

Outro Solo
e|-----------------------------------------------------------------------------------|
B|-----------------------------------------------------------------------------------|
G|-----------------------------------------------------------------------------------|
D|-------7-------5------------------7-------5------------------7--------5------------|
A|--7-10--10-5-7--7-2-3-5-----7-10--10-5-7--7-2-3-5-----7-10---10-5-7--7-2-3-5-------|
E|-------------------------3-5------------------------3-5------------------------3-5-|

e|------------------------------------------------------------------------------|
B|--1---------------------------------------------------------------------------|
G|--0---------------------------------------------------------------------------|
D|--2---------------------------------------------------------------------------|
A|--3---------------------------------------------------------------------------|
E|--3---------------------------------------------------------------------------|


| /  slide up
|   slide down
| h  hammer-on
| p  pull-off
| ~  vibrato
| +  harmonic
| x  Mute note
===============================================================================
Tap to rate this tab
 
# A B C D E F G H I J K L M N O P Q R S T U V W X Y Z