Song name
# A B C D E F G H I J K L M N O P Q R S T U V W X Y Z

Cazals - What Of Our Future tab

-------------------------------------------------------------------------------
			     What Of Our Future - Cazals
-------------------------------------------------------------------------------
Tabbed by: Danny

Intro
e|--10-10-10-10---------------------------------------------------------------------|
B|--10-10-10-10---------------------------------------------------------------------|
G|--10-10-10-10-------------5-5---4-4----7-7-------------5-5----4-4-----7-7---------|
D|--12-12-12-12------7-7-------------5-5----------7-7---------------5-5-------------|
A|----------------5-5----8-8---7-7------------5-5-----8-8----7-7--------------------|
E|----------------------------------------------------------------------------------|

e|------------------------------------------------------------------------------|
B|------------------------------------------------------------------------------|
G|--------------5-5----4-4-----7-7------------5-5----4-4-----7-7----------------|
D|------7-7----------------5-5---------7-7---------------5-5--------------------|
A|--5-5-----8-8----7-7-------------5-5----8-8----7-7----------------------------|
E|------------------------------------------------------------------------------|

Verse (the chord is split between bass and two guitars playing a note each)
e|-----------------------------------------------------------------------------------|
B|-----------------------------------------------------------------------------------|
G|-----------------------------------------------------------------------------------|
D|--7--7--7---10-10-10--5-5-5--3-3-3----------------------------------------guitar 2-|
A|--8--8--8---12-12-12--7-7-7--5-5-5----------------------------------------guitar 1-|
E|--10-10-10--13-13-13--8-8-8--6-6-6-------------------------------------------------|bass
                                                                                         
                                                   X4
Bridge (still split!)
e|--------------------------------------------------------------------------------|
B|--------------------------------------------------------------------------------|
G|--7--7--7--5-5-5--7--7--7--9--9--9----------------------------------------------|
D|--9--9--9--7-7-7--9--9--9--10-10-11---------------------------------------------|
A|--10-10-10-8-8-8--10-10-10-12-12-12---------------------------------------------|
E|--------------------------------------------------------------------------------|

Chorus
e|------------------------------------------------------------------------------|
B|------------------------------------------------------------------------------|
G|--------------5-5----4-4-----7-7------------5-5----4-4-----7-7----------------|
D|------7-7----------------5-5---------7-7---------------5-5--------------------|
A|--5-5-----8-8----7-7-------------5-5----8-8----7-7----------------------------|
E|------------------------------------------------------------------------------|X4

Verse 2
Bridge
Chorus - all as above

Outro
e|------------------------------------------------------------------------------|
B|------------------------------------------------------------------------------|
G|--------------5-5----4-4-----7-7------------5-5----4-4-----7-7----------------|
D|------7-7----------------5-5---------7-7---------------5-5--------------------|
A|--5-5-----8-8----7-7-------------5-5----8-8----7-7----------------------------|
E|------------------------------------------------------------------------------|X4

e|-----------------------------------------------------------------------------|
B|---------------------13-13-------12-12-------15-15---------------------------|
G|--------14-14--------------------------12-12---------------------------------|
D|--12-12-------15-15-------14-14----------------------------------------------|
A|-----------------------------------------------------------------------------|
E|-----------------------------------------------------------------------------|X4


| /  slide up
|   slide down
| h  hammer-on
| p  pull-off
| ~  vibrato
| +  harmonic
| x  Mute note
===============================================================================
Tap to rate this tab
# A B C D E F G H I J K L M N O P Q R S T U V W X Y Z