Song name
# A B C D E F G H I J K L M N O P Q R S T U V W X Y Z

Cazals - Life Is Boring tab

-------------------------------------------------------------------------------
			     Life Is Boring - Cazals
-------------------------------------------------------------------------------
Tabbed by: Danny

Verse 1
Guitar 1
e|--------------------8----------15--------8----------------------------------------|
B|-------15----------10--------------------8----------------------------------------|
G|-------------------10------------12------9----------------------------------------|
D|----------12----------------------------------------------------------------------|
A|----------------------------------------------------------------------------------|
E|----------------------------------------------------------------------------------|
Guitar 2
e|--5------------8--------10-----------8--------------------------------------------|
B|--6-----------10--------11-----------8--------------------------------------------|
G|--7-----------10--------12-----------9--------------------------------------------|
D|----------------------------------------------------------------------------------|
A|----------------------------------------------------------------------------------|
E|----------------------------------------------------------------------------------|

Guitar Break
Guitar 1
e|-----------------------------------------------------------------------------------|
B|-----------------------------------8-----------------------------------------------|
G|----------10-----------5----5-------10------------2-3------------------------------|
D|------12-----------7-----7-------------8-------3-----------------------------------|
A|-----------------------------------------------------------------------------------|
E|-----------------------------------------------------------------------------------|

e|-----------------------------------------------------------------------------------|
B|-----------------------------------------------------------------------------------|
G|-----------------------------------------------------------------------------------|
D|--7-7--------10-10-----------------------------------------------------------------|
A|--5-5---------8--8-----------5-5----------8-8---7-7--------------------------------|
E|------------------------------3-3----------6-6---5-5-------------------------------|

Chorus (Listen to track for proper rhythm pattern too much to type out)
e|----8---8---8---8--8--8---10--10--10---8--8--8--6--6--6----------------------|
B|---10--10--10---8--8--8---10--10--10---8--8--8--6--6--6----------------------|
G|---10--10--10---9--9--9---10--10--10---9--9--9--7--7--7----------------------|
D|-----------------------------------------------------------------------------|
A|-----------------------------------------------------------------------------|
E|-----------------------------------------------------------------------------|

e|----8---8---8---8--8--9---10--10--10---8--8--8--6--6--6----5-6-5----------------|
B|---10--10--10---8--8--8---10--10--10---8--8--8--6--6--6----------6--------------|
G|---10--10--10---9--9--9---10--10--10---9--9--9--7--7--7------------7------------|
D|--------------------------------------------------------------------------------|
A|--------------------------------------------------------------------------------|
E|--------------------------------------------------------------------------------|

e|--------------------------------------------------------------------------------|
B|---------------------------------------------------10-10------------------------|
G|--7-7--7-7-7--7-7-7--7-7-7--7-7-7--7-7-7--7-7-7---------------------------------|
D|--------------------------------------------------------------------------------|
A|--------------------------------------------------------------------------------|
E|--------------------------------------------------------------------------------|

Verse (as above)

Middle 8
e|----------13-----------------15------18--------------------------------------------|
B|--15---------15----15----------15-------15----18-----------------------------------|
G|----14----------14----14-14------14--------17----15-15-17-17-----------------------|
D|-------15--------------------------------------------------------------------------|
A|-----------------------------------------------------------------------------------|
E|-----------------------------------------------------------------------------------|X4


e|---------13-------|
B|--15-------15-----|
G|----14-------14---|
D|------15----------|
A|------------------|
E|------------------|X8

Chorus (as above)

Outro
e|--------------------------------------------------------------------------------|
B|----------------------------10-10-10--10-10-10--10-10-8-6-5-6-8-6-5-3-5-6-8-10--|
G|--7-7--7-7-7--7-7-7--7-7-7------------------------------------------------------|
D|--------------------------------------------------------------------------------|
A|--------------------------------------------------------------------------------|
E|--------------------------------------------------------------------------------|

I've put the tab for both guitars in the verse as they play off each other the rest of
song is more straight. The chorus has a set rhythm pattern as you'll hear on the demo
to download off the website cazals.co.uk) i've just put the chord shapes for this oh and 
last three notes of the outro are really thrashed out.


| /  slide up
|   slide down
| h  hammer-on
| p  pull-off
| ~  vibrato
| +  harmonic
| x  Mute note
===============================================================================
Tap to rate this tab
 
# A B C D E F G H I J K L M N O P Q R S T U V W X Y Z