Song name
# A B C D E F G H I J K L M N O P Q R S T U V W X Y Z

Cazals - A Big Mistake tab

-------------------------------------------------------------------------------
			     A Big Mistake - Cazals
-------------------------------------------------------------------------------
Tabbed by: Danny

Intro
e|-----------------------------------------------------------------------------|
B|-----------------------------------------------------------------------------|
G|-----------------------------------------------------------------------------|
D|--14-14-14-14-14-14--------14-14-14-14-14-14---------------------------------|
A|---------------------14-14---------------------14-14-------------------------|
E|-----------------------------------------------------------------------------|X2
Verse 1
e|-----------------------------------------------------------------------------|
B|-----------------------------------------------------------------------------|
G|------4-2-----4-2-----4-2-----4-2-----4-2-----4-2-----4-2-----4-2------------|
D|--2-2-----2-2-----2-2-----2-2-----0-0-----0-0-----0-0-----0-0----------------|
A|-----------------------------------------------------------------------------|
E|-----------------------------------------------------------------------------|X4
Bridge
e|-----------------------------------------------------------------------------|
B|-----------------------------------------------------------------------------|
G|------9-9-----9-9-----9-9-----9-9-----7-7-----7-7-----7-7-----7-7------------|
D|--7-7-----7-7-----7-7-----7-7-----5-5-----5-5-----5-5-----5-5----------------|
A|-----------------------------------------------------------------------------|
E|-----------------------------------------------------------------------------|X2
Verse 2
e|-----------------------------------------------------------------------------|
B|-----------------------------------------------------------------------------|
G|-----------------------------------------------------------------------------|
D|------9-7-----9-7----9-7-----9-7-----9-7-----9-7-----9-7-----9-7-------------|
A|--7-7-----7-7----7-7-----7-7-----5-5-----5-5-----5-5-----5-5-----------------|
E|-----------------------------------------------------------------------------|X2

Bridge
e|-----------------------------------------------------------------------------|
B|-----------------------------------------------------------------------------|
G|------9-9-----9-9-----9-9-----9-9-----7-7-----7-7-----7-7-----7-7------------|
D|--7-7-----7-7-----7-7-----7-7-----5-5-----5-5-----5-5-----5-5----------------|
A|-----------------------------------------------------------------------------|
E|-----------------------------------------------------------------------------|

e|-----------------------------------------------------------------------------|
B|-----------------------------------------------------------------------------|
G|------9-9-----9-9-----9-9-----9-9-----7-7-----7-7-----7-7-----7-7------------|
D|--7-7-----7-7-----7-7-----7-7-----5-5-----5-5-----4-4-----4-4----------------|
A|-----------------------------------------------------------------------------|
E|-----------------------------------------------------------------------------|

Chorus
e|-------3----------3----------5-------2------3-----------------------------------|
B|----5---5--5---5---5--5---5---5--5----3------3----------------------------------|
G|--5--5---5---4--4---4---4--4---4---4---4-4----4---------------------------------|
D|--------------------------------------------------------------------------------|
A|--------------------------------------------------------------------------------|
E|--------------------------------------------------------------------------------|

e|-------3----------3----------5-------2-2--3-3--------------------------------|
B|----5---5--5---5---5--5---5---5--5--3-3--3-3---------------------------------|
G|--5--5---5---4--4---4---4--4---4----4-4--4-4---------------------------------|
D|-----------------------------------------------------------------------------|
A|-----------------------------------------------------------------------------|
E|-----------------------------------------------------------------------------|
repeat both for full chorus

Verse 3 (same as verse 1)
Bridge
Chorus

Solo
e|-------------x-x-x-0-----12-----12--------------------------------------------|
B|-----12------x-x-x-0-------12-----12--10--------------------------------------|
G|--9----12-9--x-x-x-0--9-------9-----9----12-11-------11--12-12-11-11-9-9-9-9--|
D|-------------x-x-x-0----------------------------12/14-------------------------|
A|-------------x-x-x-0----------------------------------------------------------|
E|-------------x-x-x-0----------------------------------------------------------|

e|-------------x-x-x-0-----12-----12------------------------------------------|
B|-----12------x-x-x-0-------12-----12--10------------------------------------|
G|--9----12-9--x-x-x-0--9-------9-----9----12-11-------11--12-12-11-11--------|
D|-------------x-x-x-0----------------------------12/14-----------------------|
A|-------------x-x-x-0--------------------------------------------------------|
E|-------------x-x-x-0--------------------------------------------------------|

e|----------------------------------------------------------------------------------|
B|-12-----12-----12-----------------------------------------------------------------|
G|-14b16--14b16--14b16--------------------------------------------------------------|
D|----------------------------------------------------------------------------------|
A|----------------------------------------------------------------------------------|
E|----------------------------------------------------------------------------------|

Bridge & Chorus all as above

Hope you can make sense of this, you can download the demo off our website cazals.co.uk
only discrepency is the solo as the producer of the demo put a few effects on when
it which i can't really tab so i've put what i basically play live, its quite distorted 
live i have added a tremelo pedal to last out a few notes and whack out at the open strings.

| /  slide up
|   slide down
| h  hammer-on
| p  pull-off
| ~  vibrato
| +  harmonic
| x  Mute note
===============================================================================
Tap to rate this tab
 
# A B C D E F G H I J K L M N O P Q R S T U V W X Y Z