Song name
# A B C D E F G H I J K L M N O P Q R S T U V W X Y Z

Cazals - My Ex Valentine tab

-------------------------------------------------------------------------------
			     My Ex Valentine - Cazals
-------------------------------------------------------------------------------
Tabbed by: Danny

Intro
e|--2----------------3---10---8---5---3---10---8---10------------------------------|
B|--3----------------3---10---8---5---3---10---8---10------------------------------|
G|--2----------------4---11---9---5---4---11---9---11------------------------------|
D|--0------------------------------------------------------------------------------|
A|--0--15*-------------------------------------------------------------------------|
E|---------------------------------------------------------------------------------|

* Ring out the D chord and hammer on the c note (15th fret A string), let all the
chords ring out.

Verse
Guitar 2
e|-----------------------------------------------------------------------------|
B|-----------------------------------------------------------------------------|
G|-----------------------------------------------------------------------------|
D|--9----12--12--10--9----12--12--10--9---12--12--10--9----10------------------|
A|--10---14--14--12--10---14--14--12--10--14--14--12--10---12------------------|
E|-----------------------------------------------------------------------------|
Guitar 1
e|-----------------------------------------------------------------------------|
B|--------------------------15--15--13-12--15--15--13--12-------8-8-10---------|
G|-----------------------------------------------------------------------------|
D|-----------------------------------------------------------------------------|
A|-----------------------------------------------------------------------------|
E|-----------------------------------------------------------------------------|

Guitar Break
Guitar 1
e|--3--xxxx--10----------------8--xxxx--5--------------------------------------|
B|--3--xxxx--10--12-13-12-10--8--xxxx--5--12-13-12-10--------------------------|
G|--4--xxxx--11----------------9--xxxx--5--------------------------------------|
D|-----------------------------------------------------------------------------|
A|-----------------------------------------------------------------------------|
E|-----------------------------------------------------------------------------|X2
Guitar 2
e|------------------------------------------------------------------------------|
B|------------------------------------------------------------------------------|
G|------------------------------------------------------------------------------|
D|-------------7-7-7-7-7-7-7--5-5-5-5-5-----------------------------------------|
A|--5-5-5-5-5--5-5-5-5-5-5-5--3-3-3-3-3--7-7-7-7-7-7----------------------------|
E|--3-3-3-3-3-----------------------------5-5-5-5-5-5---------------------------|

Middle 8
Guitar 2
e|--------------------------------------------------------------------------------|
B|--------------------------------------------------------------------------------|
G|--------------------------------------------------------------------------------|
D|--9-9---------------------------------------------------------------------------|
A|--7-7--9-9-9-9-------10-10--7-7-7-7---------------------------------------------|
E|-------7-7-7-7--------8--8---5-5-5-5--------------------------------------------|X3

Guitar 1
e|-----------------------------------------------------------------------------|
B|-----------------------------------------------------------------------------|
G|--------------11-------------------------------------------------------------|
D|-----------------12-9--------------------------------------------------------|
A|--------------------------------------9b10r9p7-------------------------------|
E|-----------------------------------------------------------------------------|X2

Guitar Solo
e|-----------------------------------------------------------------------------|
B|-----------------------------------------------------------------------------|
G|--2/-14-14-14-14-14-14-14-14-12-12-12-12-12-12-12-12-14-14-14-14-14-14-14-14-|
D|-----------------------------------------------------------------------------|
A|-----------------------------------------------------------------------------|
E|-----------------------------------------------------------------------------|

e|-----------------------------------------------------------------------------|
B|-----------------------------------------------------------------------------|
G|--19-17-16-17-16-16-16-16-16b17r16-14/12-12-12--16b17r16-14/12-12-12-12-12---|
D|-----------------------------------------------------------------------------|
A|-----------------------------------------------------------------------------|
E|-----------------------------------------------------------------------------|

Outro
e|-----------------------------------------------------------------------------------|
B|-----------------------------------------------------------------------------------|
G|----------------12-12----------------12-12-----------------------------------------|
D|----12-10-9--------------12-12-10-9------------------------------------------------|
A|-------------10-------10-------------------10--------------------------------------|
E|---------------------------------------------------------------------------|X16----|

End
e|---3---3-3-3-----12--11--3--------------------------------------------------------|
B|---3---3-3-3-----12--11--3--------------------------------------------------------|
G|-----------------12--10--4--------------------------------------------------------|
D|----------------------------------------------------------------------------------|
A|---2---2-2-2----------------------------------------------------------------------|
E|---3---3-3-3----------------------------------------------------------------------|

The intro on the demo is on piano but live thats what I play . Its a short song and you
be avle to work out tanything i've missed as there isn't much else to the song. You can
the demo off the website cazals.co.uk. With the outro play the first 8 runs with your 
hand dampning the strings at the bridge and then open for the final 8.


| /  slide up
|   slide down
| h  hammer-on
| p  pull-off
| ~  vibrato
| +  harmonic
| x  Mute note
===============================================================================
Tap to rate this tab
 
# A B C D E F G H I J K L M N O P Q R S T U V W X Y Z