Song name
# A B C D E F G H I J K L M N O P Q R S T U V W X Y Z

Cbc Guy - Hockey Night In Canada Theme tab

Tabbed by Lodderboy(A.K.A. coolguy)
Im a big fan of HNIC and I wanted to be able to play this, but im the only patriotic 
enough canadian to actualy tab this. its my first tab but it actualy sounds rite. you 
dont always hear this part but sometimes they play it during intermissions, its the full 
version

standard tunning of course

Distortion
e|---------------------------------------------------------|
B|---------------------------------------------------------|
G|---------------------------------------------------------|
D|-2--2-7--7-5--2--2-8--7--2--2-7--7-5--2--2-2-5-7--9--9-10|
A|-2--2-7--7-5--2--2-8--7--2--2-7--7-5--2--2-2-5-7--9--9-10|
E|-0--0-5--5-3--0--0-6--5--0--0-5--5-3--0--0-0-3-5--7--7-8-|

E|----------------------------------------|
B|----------------------------------------|
G|----------------------------------------|
D|--9-5--7--7-8--7-3--7--7-10--10-11--12--|
A|--9-5--7--7-8--7-3--7--7-10--10-11--12--|
E|--7-3--5--5-6--5-1--5--5-8---8--9---10--|
Tap to rate this tab
# A B C D E F G H I J K L M N O P Q R S T U V W X Y Z