Song name
# A B C D E F G H I J K L M N O P Q R S T U V W X Y Z

Cc Cowboys - N Kommer Jeg Og Tar Deg chords

Highlighted       Show chord diagrams
Jeg s en versjon her, men dette er i allefall slik jeg liker  spille den.

E5-chord
E-----------|
B-----------|
G---9-------|
D---9-------|
A---7-------|
E-----------|

E/D#-chord
E-----------|
B-----------|
G----9------|
D----9------|
A----6------|
E-----------|

C# 5-chord
E-----------|
B-----------|
G----6------|
D----6------|
A----4------|
E-----------|

B5-chord
E-----------|
B-----------|
G----4------|
D----4------|
A----2------|
E-----------|

F#-chord
E----0------|
B----0------|
G----3------|
D----4------|
A----4------|
E----2------|

A-chord
E-----------|
B----2------|
G----2------|
D----2------|
A-----------|
E-----------|

B-chord
E----2------|
B----4------|
G----4------|
D----4------|
A----2------|
E----2------|

Intro
E5 - E/D# - C#5 - B5 - F# - A


E5   E/D#    C5    B5                F#
Hor,         noe   svart har lagt en hand
       A                          E5
paa din kropp og han synger for deg
   E/D#          C5    B5         F#
Se,             jeg er full av sot musikk
        A
Og mitt gronne blikk er
B
tenkt for deg
B
spent for deg

Refreng
                 E5 - E/D# - C#5 - B5 - F# - A
N? kommer jeg og tar deg!

Verse 2 
H?r, noen st?nner ved deg
eller andre denne gang
Se, du er akkurat som dem
og hver ord jeg sang har
gr?tt for deg
jeg har gjort de godt for deg

"Refrain"x2
Naa kommer jeg og tar deg!

Naa kommer jeg og tar deg!

Bridge
B                                   E5 - E/D# - C#5 - B5 
Omkring deg ligger de du trodde var med deg
B                                  E5 - E/D# - C#5 - B5 - F# - A
Omkring deg ligger alt du trodde du var

C#m                                       F#
Ta kl?rne p, du kan l?ne min kam og gre deg
   F#                                                 E5 - E/D# - C#5 - B5
Og m?t din mor, hils din far og si at alt du var n? er forbi

Strum this part only once
E5 - E/D# - C#5
             B5               F#           A
Du h?rer meg si - at jeg elsker deg, jeg ser over deg
         E5 - E/D# - C#5 - B5 - F# - A  
og er fri

Refrain 
Tap to rate this tab
# A B C D E F G H I J K L M N O P Q R S T U V W X Y Z