Song name
# A B C D E F G H I J K L M N O P Q R S T U V W X Y Z

Cc Cowboys - Nr Du Sover tab

CC Cowboys - Nr du Sover

Her har du Tab for sangen, har funnet ut alt selv, var ganske enkelt. Si ifra hvis det 
noe problemer;)
Here is the Tab for this song, i had to find out everything by myself, but it was not 
Let me know if there is something
you want to know.


Intro:
|-------3------|-------3--------|------3------|
|-------3------|-------3--------|------3------|
|:-------------|-------2-------:|-------------|
|:-------------|---------------:|------2------|
|-------2------|----------------|------3------|
|-------3------|-------2--------|-------------|

Vers
|-------3------|-------3--------|------3------|------3-----|
|-------3------|-------3--------|------3------|------3-----|
|:-------------|-------2-------:|-------------|------------|
|:-------------|---------------:|------2------|------2-----|
|-------2------|----------------|------2------|------3-----|
|-------3------|-------2--------|-------------|------------|

      Nr du sover, demper jeg lyset som svever over,
      dine skuldre, ditt gyldne hr, og hete kinn.

|-------3------|-------3-------|
|-------3------|-------3-------|
|:-------------|-------2-------| (Fr resten av verset..)
|:------2------|---------------|
|-------2------|---------------|
|--------------|-------2-------|

|-------3------|-------3--------|------3------|------3-----|
|-------3------|-------3--------|------3------|------3-----|
|:-------------|-------2-------:|-------------|------------|
|:-------------|---------------:|------2------|------2-----|
|-------2------|----------------|------2------|------3-----|
|-------3------|-------2--------|-------------|------------|

  Frst nr du sover er du fri, dager flyr og gjr som de vil,
  jeg byer meg over  snuser det inn...

2x
|-------3------|-------3--------|------3------|------3-----|
|-------3------|-------3--------|------3------|------3-----|
|:-------------|-------2-------:|-------------|------------|
|:-------------|---------------:|------2------|------2-----|
|-------2------|----------------|------2------|------3-----|
|-------3------|-------2--------|-------------|------------|

   Du er fri,                    nr du sover,
   er du fri,                    nr du sover,


|-------3------|-------3--------|------3------|------3-----|
|-------3------|-------3--------|------3------|------3-----|
|:-------------|-------2-------:|-------------|------------|
|:-------------|---------------:|------2------|------2-----|
|-------2------|----------------|------2------|------3-----|
|-------3------|-------2--------|-------------|------------|
   Nr du sover, kan jeg ikke jage dine spkelser,
   jeg ser du kjelver, jeg ser du smiler,
   du er en hemlighet du ikke vet...(Fortsetter under)


|-------3------|-------3--------|------3------|------3-----|
|-------3------|-------3--------|------3------|------3-----|
|:-------------|-------2-------:|-------------|------------|
|:-------------|---------------:|------2------|------2-----|
|-------2------|----------------|------2------|------3-----|
|-------3------|-------2--------|-------------|------------|

 ....om..                        Nr du sover,
  er du fri,                     Nr du sover..


Hey hey hey <-----(Bare spill det vannlige som du spiller under verset)


|-------3------|-------3--------|------3------|------3-----|
|-------3------|-------3--------|------3------|------3-----|
|:-------------|-------2-------:|-------------|------------|
|:-------------|---------------:|------2------|------2-----|
|-------2------|----------------|------2------|------3-----|
|-------3------|-------2--------|-------------|------------|
Jeg grubler  tenker i saktefilm,  ikke f sove er en ensom ting,
nr du sover..... nr du sover.... nr du sover er du fri...

|-------3------|-------3--------|------3------|------3-----|
|-------3------|-------3--------|------3------|------3-----|
|:-------------|-------2-------:|-------------|------------|
|:-------------|---------------:|------2------|------2-----|
|-------2------|----------------|------2------|------3-----|
|-------3------|-------2--------|-------------|------------|
3xReff
Nr du sover, er du fri,
nr du sover

Tab by Kim Lervik
Tap to rate this tab
# A B C D E F G H I J K L M N O P Q R S T U V W X Y Z