Song name
# A B C D E F G H I J K L M N O P Q R S T U V W X Y Z

Cccp - Cccp Fedeli Alla Linea tab

te: Fri, 20 Feb 1998 14:51:39 -0500
From: Marco Bertolino 
Subject: TAB: c/CCCP/CCCP_Fedeli_alla_linea.tab


C.C.C.P. - C.C.C.P. (Fedeli alla linea)
Da "Affinit?-Divergenze fra il Compagno Togliatti
e Noi del conseguimento della maggiore et?"

N.B.
Per capire come fa la chitarra, ? meglio se vi ascoltate il
pezzo (a orecchio ? sicuramente pi? intuitivo). Il riff ini-
ziale ha un ritmo diverso da quello della seconda strofa.

G |------------------------------------|
D |----------------------7--x--5--8----|
A |-----------7--6--5------------------|
E |----5--5----------------------------|

... C.C.C.P.!

      P.M. ............................|
E |---------------------------------------|
B |---------------------------------------|
G |---------------------------------------|
D |----x----x----x----x----x----x----x----|
A |----x----x----x----x----x----x----x----|
E |----x----x----x----x----x----x----x----|

Portami via la pelle, totalizzata
Ogni ripetibile chance, un disturbo residuo
Data, rata, mi depravo pi? di una Voodoo
KGB, KGB, KGB, altro che, sono un uomo sensazionale
Afferrare l'occasione propizia, indicare con una crocetta
La qualit?, la quantit? desiderata
La qualit?, la quantit? desiderata

E |------------------------------------------------------|
B |------------------------------------------------------|
G |------------------------------------------------------|
D |----5----6----5----x----x----x----5----5----6----6----|
A |----3----4----3----x----x----x----3----3----4----4----|
E |------------------------------------------------------|

Fedeli alla linea
Fedeli alla linea
Fedeli alla linea
C.C.C.P.!

Fedeli alla linea, anche quando non c'?
Quando un ricco ? perdonato
Quando muore, o ? dubbioso, o ? depresso
Fedeli alla linea, e la linea non c'?
Fedeli alla linea, e la linea non c'?
Fedeli alla linea, e la linea non c'?

Fedeli alla linea
Fedeli alla linea
Fedeli alla linea
C.C.C.P.!

Altro che buon uomo
Altro che buon uomo
Altro che buon uomo
Tap to rate this tab
# A B C D E F G H I J K L M N O P Q R S T U V W X Y Z