Song name
# A B C D E F G H I J K L M N O P Q R S T U V W X Y Z

Cccp - Tu Menti tab

tabbed by Nannarč
main reef
guitar1
 ---------------------------|
 ---------------------------|
 -----------5-5-------------|
 -7-7-----5-5-5-7-7---------|
 -7-7-----5-3-3-7-7---------|
E-5-5-0-5-3-----5-5---------|

guitar2
 ----------------------------|
 ----------------------------|
 --7(9)7--7-5----------------|
 ----------------------------|
 ----------------------------|
E----------------------------|

rit
 ---------------------------|
 ---------------------------|
 -5-5--7-7--5-5--7-7--------|
 -5-5--7-7--5-5--7-7--------|
 -3-3--5-5--3-3--5-5--------|
E---------------------------|

dopo il secondo ritornello
guitar2
 ----------------------------|
 ----------------------------|
 -5-4--4---------------------|
 --------7-----7-------------|
 ------------5---7-----------|
E----------8-----------------|
Tap to rate this tab
# A B C D E F G H I J K L M N O P Q R S T U V W X Y Z