Song name
# A B C D E F G H I J K L M N O P Q R S T U V W X Y Z

Cccp - Io Sto Bene tab

CCCP - IO STO BENE

  Main riff    int              outro
e|------------|----------------|--10--------7----7--|
B|------------|--88888-10-8-7--|--10--------7----7--|
G|------------|--99999-9--9-9--|--9---------6----6--|
D|----7--7-7--|--77777-7--7-7--|--7---------4----4--|
A|--00-00-0---|----------------|--0---------0----0--|
E|------------|----------------|--------------------|

  riff 1             riff 2 
G|------------------|----------------------------------------------|
D|------------------|----------------------------------------------|
A|------------------|---7-7--4-4--5-5--5--5---7-7--4-4--540-540-54-|
E|-5555222233333333-|-55-5-22-2-33-3-33-33--55-5-22-2--------------|

[A]
è una questione di qualità
[F#m]
è una questione di qualità
[G]                       [G]
è una questione di qualità
[A]
o una formalità
[F#m]                [G]          [G]
non ricordo più bene una formalità
è una questione di qualità
è una questione di qualità
è una questione di qualità
o una formalità
non ricordo più bene una formalità

come decidere di radersi i capelli
di eliminare il caffè, le sigarette
di farla finita con qualcuno o qualcosa,
 una formalità   una formalità
 una formalità o una questione di qualità
_

io sto bene io sto male 
io non so come stare 

io sto bene io sto male 
io non so cosa fare
non studio non lavoro non guardo la TV
non vado al cinema non faccio sport
non studio non lavoro non guardo la TV
non vado al cinema non faccio sport
_
_

è una questione di qualità
è una questione di qualità
è una questione di qualità
o una formalità
non ricordo più bene una formalità

come decidere di radersi i capelli
di eliminare il caffè, le sigarette
di farla finita con qualcuno
o qualcosa,
 una formalità una formalità 
 una formalità o una questione di qualità

io sto bene io sto male
io sto bene io sto male
io sto bene io sto male
ma è una formalità 
una formalità
una formalità
una formalità
una formalità
una formalità
una formalità

intro x6
riff 1 x2 (bass)
riff 1 x4 (with voice)
riff 2 x3
riff 1 (int)
chorus (int)
chorus
riff 2 x2
riff 2 (int)
riff 1 (int)
riff 1 x4
riff 1 x8 (outro)
Tap to rate this tab
# A B C D E F G H I J K L M N O P Q R S T U V W X Y Z