Cease Of Breeding - 52 Litres Of Blood tab

RIFF 1 (250 BPM)
E|--------------------------------------------------------|
B|--------------------------------------------------------|
G|--------------------------------------------------------|
D|--------------------------------------------------------|
A|--------------------------------------------------------|
E|--------------------------------------------------------|
B|0000-9999-12121212-1313-1010-1313-1010-15151515-12121212|

E|--------------------------------------------------------|
B|--------------------------------------------------------|
G|--------------------------------------------------------|
D|--------------------------------------------------------|
A|--------------------------------------------------------|
E|--------------------------------------------------------|
B|0000-9999-12121212-1313-1010-1313-1010-17171717-14141414|

E|--------------------------------------------------------|
B|--------------------------------------------------------|
G|--------------------------------------------------------|
D|--------------------------------------------------------|
A|--------------------------------------------------------|
E|--------------------------------------------------------|
B|0000-9999-12121212-1313-1010-1313-1010-15151515-12121212|

E|--------------------------------------------------------|
B|--------------------------------------------------------|
G|--------------------------------------------------------|
D|--------------------------------------------------------|
A|--------------------------------------------------------|
E|--------------------------------------------------------|
B|0000-14141414-17171717-14141414-0-0-10-13-0-0-9-12------|
                                  . . .  .  . . . .
RIFF 2 (280 BPM)
E|--------------------------------|--------------------------------|
B|--------------------------------|--------------------------------|
G|--------------------------------|--------------------------------|
D|--------------------------------|--------------------------------|
A|--------------------------------|--------------------------------|
E|--------------------------------|--------------------------------|
B|8-11-0-0-5-8-0-0-2-5-0-0-2-5-0-0|8-11-0-0-5-8-0-0-2-5-0-0-5-8-0-0|
  . .  . . . . . . . . . . . . . . . .  . . . . . . . . . . . . . .

RIFF 3 (280 BPM)
E|---------------------------------------------------------------|
B|---------------------------------------------------------------|
G|---------------------------------------------------------------|
D|---------------------------------------------------------------|
A|---------------------------------------------------------------|
E|2222----22220------------------2222----22220-------------------|
B|----0000----0---1-4-0-0-2-5-0-0----0000----0---2-5-0-0-1-4-0-0-|
                  . . . . . . . .                . . . . . . . .

------------------------------------------------|
------------------------------------------------|
------------------------------------------------|
------------------------------------------------|
------------------------------------------------|
-2222----22220----------------------------------|
-----0000----0---1-4-0-0-2-5-0-0-1-4-0-0-2-5-0-0|
                 . . . . . . . . . . . . . . . .

RIFF 4 (250 BPM)
E|--------0---------------0-0-------------3---------------3-3-----|
B|--------0---------------0-0-------------3---------------3-3-----|
G|--------0---------------0-0-------------3---------------3-3-----|
D|--------3---------------3-3-------------3---------------3-3-----|
A|1s3---0-3---1-0-1s3---0-3-3-1-0-1s3---0-1---1-0-1s3---0-1-1-1-0-|
E|1s3---0-1---1-0-1s3---0-1-1-1-0-1s3---0-1---1-0-1s3---0-1-1-1-0-|
B|1s3-0-0---0-1-0-1s3-0-0-----1-0-1s3-0-0---0-1-0-1s3-0-0-----1-0-|
        .     . .       .     . .       .     . .       .     . .

x2
E|------------------------0-0----|
B|------------------------0-0----|
G|------------------------0-0----|
D|------------------------3-3----|
A|1s3-1-0-1-3-1-0-1s3-0-0-3-3----|
E|1s3-1-0-1-3-1-0-1s3-0-0-1-1-1-0|
B|1s3-1-0-1-3-1-0-1s3-0-0-----1-0|
      . . . . . .     . .     . .

RIFF 5 (135 BPM - TRIPLETS)
E|-------------------------------------------------|
B|-------------------------------------------------|
G|-------------------------------------------------|
D|-------------------------------------------------|
A|888888------888888-------------------------------|
E|------777777------7777---------------------------|
B|----------------------00111444333111444444333333-|

---------------------------------------------|
---------------------------------------------|
---------------------------------------------|
---------------------------------------------|
888888------888888---------------------------|
------777777------7777-----------------------|
----------------------00111444333111444333111|

RIFF 6
E|--------------------------------------------------|
B|--------------------------------------------------|
G|--------------------------------------------------|
D|--------------------------------------------------|
A|--------------------------------------------------|
E|--------------------------------------------------|
B|000000333333-6-3-0-6-3-0-666666333333-6-3-0-6-3-0-|
               . . . . . .              . . . . . .

-------------------------------------------|
-------------------------------------------|
-------------------------------------------|
-------------------------------------------|
-------------------------------------1--0--|
-------------------------------------1--0--|
000000333333-6-3-0-6-3-0-6-3-0-6-3-0-1--0--|
             . . . . . . . . . . . . .  .

RIFF 7 (250 BPM)
E|-----------0-0--------|
B|-----------0-0--------|
G|-----------0-0--------|
D|-----------6-6--------|
A|1-1s4-3t---6-6-1s4-3t-|
E|1-1s4-3t---4-4-1s4-3t-|
B|1-1s4-3t-0-----1s4-3t-|
  .

RIFF 8 (250 BPM)
E|--------------------------------------|
B|--------------------------------------|
G|--------------------------------------|
D|--------------------------------------|
A|1-1s4-------------1-1s4---------------|
E|1-1s4-1-------1-1-1-1s4-1---------1---|
B|1-1s4-0-------3-3-1-1s4-0-------3---3-|
  .                 .


-----------------------------------------------|
-----------------------------------------------|
-----------------------------------------------|
-----------------------------------------------|
1-1s4-------------1-1s4------------------------|
1-1s4-1-------1-1-1-1s4-1----------------------|
1-1s4-0-------3-3-1-1s4-0-------3-2-0-0-3-2-0-0|
.                 .             . . . . . . . .

www.myspace.com/ceaseofbreeding
http://www.facebook.com/pages/Cease-of-Breeding/143641398983406
http://www.last.fm/music/Cease+Of+Breeding
http://www.reverbnation.com/ceaseofbreeding
Tap to rate this tab
 
# A B C D E F G H I J K L M N O P Q R S T U V W X Y Z