Song name
# A B C D E F G H I J K L M N O P Q R S T U V W X Y Z

Cebola Mol - Songoku tab

Songoku by Cebola mol. I know that are many tabs from blur song 2 that can be played but 
play this one cause its easyer to sing the song then.


E|----------------------------------------------------------------|
B|----------------------------------------------------------------|
G|----------------------------------------------------------------|
D|----------------------------------------------------------------|
A|-----5-5--3-3---5-5--6---7-7-7-7--------------------------------|
E|-----5-5--3-3---5-5--6---7-7-7-7--------------------------------|
Songoku, Songoku, Songoku, Songoku


E|----------------------------------------------------------------|
B|---------finger--picking----------------------------------------|
G|----------------------------------------------------------------|
D|-----5-5--3-3---5-5--6---7-7-7-7--------------------------------|
A|-----5-5--3-3---5-5--6---7-7-7-7--------------------------------|
E|----------------------------------------------------------------|
Bêbado ou drogado, sou sempre lixado
Se fico co'moca, tás bem tramado não...


E|----------------------------------------------------------------|
B|----------------------------------------------------------------|
G|----------------------------------------------------------------|
D|----------------------------------------------------------------|
A|-----5-5--3-3---5-5--6---7-7-7-7--------------------------------|
E|-----5-5--3-3---5-5--6---7-7-7-7--------------------------------|
Songoku, eu só quero é porrada!
Songoku, que venha tudo à molhada!!
Songoku, levas 'ma cacetada, bastões e matracas pessoal das barracas vais sofrer,
Até morres...


E|----------------------------------------------------------------|
B|---------finger--picking----------------------------------------|
G|----------------------------------------------------------------|
D|-----5-5--3-3---5-5--6---7-7-7-7--------------------------------|
A|-----5-5--3-3---5-5--6---7-7-7-7--------------------------------|
E|----------------------------------------------------------------|
Eu fumo charros, arrumo carros
P'ra risca-los, para risca-los não...


E|----------------------------------------------------------------|
B|----------------------------------------------------------------|
G|----------------------------------------------------------------|
D|----------------------------------------------------------------|
A|-----5-5--3-3---5-5--6---7-7-7-7--------------------------------|
E|-----5-5--3-3---5-5--6---7-7-7-7--------------------------------|
Songoku, eu só quero é porrada!
Songoku, que venha tudo à molhada!!
Songoku, levas 'ma cacetada, bastões e matracas pessoal das barracas vais sofrer,
Até morres...
Tap to rate this tab
# A B C D E F G H I J K L M N O P Q R S T U V W X Y Z