Cee Lo Green - Forget You tab

-------------------------------------------------------------------------------
			     Fuck You - Cee Lo Green
-------------------------------------------------------------------------------
Tabbed by: Luke Jackson
Email:lukeis2cool@hotmail.com

Tuning: Standard 

NOTE BASSISTS for this to be played in the same octave as the paino intro on the
track then the bass part would have to be put in drop C (unless you have a 5
string). So this has been tabbed for standard for our indie-cover band (I know it
is not indie but we like it). The other tabs I have seen relating to the BASS are
on the E and A strings which is all well and good but it does mean you do not go up
and down the scales in accordance with the song, you would just be playing the same
notes. 


INTRO

  Guitar I
e|-------------------------------------------------------------------|
B|-------------------------------------------------------------------|
G|---------5--------------7-----------------------------5------------|
D|---------5--------------7--------------3--------------5------------|
A|-----0---3----------0---5----------0---3--------------3------------|
E|-3--------------3--------------3-------1------1---3----------------|



CHORUS

Guitar I
e|---------------------------------------------------------------------------|
B|---------------------------------------------------------------------------|\
G|---------5-----------------7-----------------------------------5-----------| \
D|---------5-----------------7-----------------3-----------------5-----------|  \
A|-----0---3-------------0---5-------------0---3-----------------3-----------|   \
E|-3-----------------3-----------------3-------1---------1---3---------------|    \
   |                                                                       |     x2
  Bass                                                                     |      /
G|---------5-----------------------------------------------------------------|   /
D|-5---7-------------5---7---0---------0---2---3---------3---5---------------|  /
A|---------------------------------------------------------------3-----------| /
E|---------------------------------------------------------------------------|



Guitar I
e|---------------------------------------------------------------------------|
B|---------------------------------------------------------------------------|\
G|---------5-----------------7-----------------------------------5-----------| \
D|---------5-----------------7-----------------3-----------------5-----------|  \
A|-----0---3-------------0---5-------------0---3-----------------3-----------|   \
E|-3-----------------3-----------------3-------1---------1---3---------------|   |  
   |                                                                       |     |   
  Guitar II                                                                |     |
e|---------------------------------------------------------------------------|   |
B|---------------------------------------------------------------------------|   |
G|---------5-----------------7-----------------------------------5-----------|   x2
D|---------5-----------------7-----------------3-----------------5-----------|   |
A|---------3-----------------5-----------------3-----------------3-----------|   |
E|---------------------------------------------1-----------------------------|   |
   |                                                                       |     |
Bass                                                                       |     /
G|---------5-----------------------------------------------------------------|  /
D|-5---7-------------5---7---0---------0---2---3---------3---5---------------| /
A|---------------------------------------------------------------3-----------|/
E|---------------------------------------------------------------------------|


VERSE

Guitar I
e|-----------12-12-12----------10-10-10----------8--8--8-----------8-8-8-----|
B|-----------13-13-13----------10-10-10----------8--8--8-----------8-8-8-----|\
G|-----------12-12-12----------11-11-11----------10-10-10----------9-9-9-----| \
D|---------------------------------------------------------------------------|  \
A|---------------------------------------------------------------------------|   \
E|---------------------------------------------------------------------------|    \ 
   |                                                                      |      x4 
  Bass                                                                    |       /
G|---------5-----------------------------------------------------------------|   /
D|-5---7-------------5---7---0---------0---2---3---------3---5---------------|  /
A|---------------------------------------------------------------3-----------| /
E|---------------------------------------------------------------------------|



BRIDGE 

  Bass
G|-------9-----------------------------------------------------------|
D|----(9)--9--------------7-------------5h7-5h7------------5---------|
A|-5/7---------7--------7---7----7-6-5-----------------5/7-----5-6---|
E|---------------0----5-------5---------------------3----------------|


  Bass
G|-----9-----------------------------------------7---7-9---10-11-----|
D|---9---9---------7-----9----10----11-------7/9---9-----------------|
A|-7-------7---------------------------------------------------------|
E|---------------5-----7----8-----9------10-----------------------3--|

  
   Bass
G|-------------------------------------------------------------------|
D|--------------------------------------10p9-------------------------|
A|-----5\-----8\-----10--------10h12p10------10----------------------|
E|-------------------------------------------------------------------|
   |                                                                       |
  Guitar I                                                                 |
e|---------------------------------------------------------------------------|
B|---------------------------------------------------------------------------|
G|-----7--------10------12---------------------------------------------------|
D|-----7--------10------12---------------------------------------------------|
A|-----5--------8-------10---------------------------------------------------|
E|---------------------------------------------------------------------------|


   Bass
G|-------------------------------------------------------------------|
D|-------------------------------------------------------------------|
A|------------------8\---10\-----------------------------------------|
E|-5--7--8--9--10\---------------\3-3-3-3-3-3-3-3-3------------------|
   |                                                                       |
  Guitar II                                                                |
e|---------------------------------------------------------------------------|
B|---------------------------------------------------------------------------|
G|---------------------10----12-------12-12-12-12-12-12-12-------------------|
D|-7--9--10--11--12----10----12-------12-12-12-12-12-12-12-------------------|
A|-7--9--10--11--12----8-----10-------10-10-10-10-10-10-10-------------------|
E|-5--7--8---9---10----------------------------------------------------------|


Song Order:

Intro
Chorus
Verse
Chorus
Verse
Chorus
Bridge
Chorus
Tap to rate this tab
 
# A B C D E F G H I J K L M N O P Q R S T U V W X Y Z