Cee Lo Green - Fuck You tab

Fuck You by Cee Lo Green

E A D G concert pitch

intro and heavy bits in verse are like this. Do what you want in the chorus.

       C       D        F         C         or    C      D      F        C
G|------------------------------------------|------------------------------|
D|------------------0-2-3----3-5------------|------------------------------|
A|---0-3-----0-5------------------3---------|---0-3----0-5---5-----------3-|
E|-3-------3--------------------------------|-3------3---------0-1---1-3---|

Bridge
     Em              Am              Dm            G
G|-------9-----------------------------------------------------------|
D|----(9)--9--------------7-------------5h7----------------5---------|
A|---7---------7-x------7---7----7-6-5------5----------5/7-----5-6---|
E|-------------------x5-------5--------------------x3----------------|
   
   Em             Am                     Dm  G
G|-----9-----------------------------------------7---7-9-x-10-11-----|
D|---9---9---------7-----9----10----11-------7/9---9-----------------|
A|-7-------7\--------------------------------------------------------|
E|--------------05----07---08----09------10-----------------------3--|
                    (Beat 2 of the bar is here ^)

       D      F     G   Am      D
G|------------------------------------------------------|
D|---------------------------------10p9-----------------|
A|-----5------8-----------10h12p10------10--------------|
E|------------------3--12-------------------5-7-8-9-10--|
(Beat 3 of the bar is here ^)

   F      G
G|------------------------------------------------------------|
D|------------------------------------------------------------|
A|------------------------------------------------------------|
E|-1-------\3-3-3-3-etc----Random slides--etc-----------------|


If you've been playing bass for more than two years
 and can't make up stuff yourself in the verses then start playing and listening more. 
It's good for you

Tab by JCS
Tap to rate this tab
 
# A B C D E F G H I J K L M N O P Q R S T U V W X Y Z