Cee Lo Green - Forget You tab

Hi this is my first tab, based on the version in this video
http://www.youtube.com/watch?v=1i0wQQV7H_g

It sounds great and a lot of the comments on the videos were people wanting a tab. I was
able to figure it out as best as I can. I wrote it up very quickly so have probably
made a few mistakes, but hope its all OK. If you have any comments, email me at 
grantelson@hotmail.com. Cheers, Grant.

Standard tuning

(/) Slide Up

I see you driving round town with the girl I love
E|--------3-------------5-------------8-------------8---|
B|--------5-------------7-------------10------------8---|
G|--------5-------------5-------------10------------9---|
D|--------5-------------7-------------10------------10--|
A|--------3--------3/5--5--5--7--5/8--8---8--10-----10--|
E|--3--5--3--3--5-------5-------------8----------8--8---|



I said I'm sorry...I can't afford a Ferrari
E|--8---5--8---3--|
B|--8---7--10--5--|
G|--9---5--10--5--|
D|--10--7--10--5--|
A|--10--5--8---3--|
E|--8---5--8---3--|



I see you driving round town with the girl I love
E|--------3-------------5-------------8-------------8---|
B|--------5-------------7-------------10------------8---|
G|--------5-------------5-------------10------------9---|
D|--------5-------------7-------------10------------10--|
A|--------3--------3/5--5--5--7--5/8--8---8--10-----10--|
E|--3--5--3--3--5-------5-------------8----------8--8---|



Now I know I had to borrow, beg and steal and lie and cheat
E|--8---5--8---3--|
B|--8---7--10--5--|
G|--9---5--10--5--|
D|--10--7--10--5--|
A|--10--5--8---3--|
E|--8---5--8---3--|

I see you driving round town with the girl I love
E|--------3-------------5-------------8-------------8---|
B|--------5-------------7-------------10------------8---|
G|--------5-------------5-------------10------------9---|
D|--------5-------------7-------------10------------10--|
A|--------3--------3/5--5--5--7--5/8--8---8--10-----10--|
E|--3--5--3--3--5-------5-------------8----------8--8---|


Baby baby baby why u wanna wanna hurt me so bad
E|--7--5--5--3--|
B|--8--5--6--3--|
G|--9--5--7--4--|
D|--9--7--7--5--|
A|--7--7--5--5--|
E|--7--5--5--3--|

E|--7--5--5--3--|
B|--8--5--3--3--|
G|--9--5--4--4--|
D|--9--7--5--5--|
A|--7--7--5--5--|
E|--7--5--3--3--|


I see you driving round town with the girl I love
E|--------3-------------5-------------8-------------8---|
B|--------5-------------7-------------10------------8---|
G|--------5-------------5-------------10------------9---|
D|--------5-------------7-------------10------------10--|
A|--------3--------3/5--5--5--7--5/8--8---8--10-----10--|
E|--3--5--3--3--5-------5-------------8----------8--8---|
Tap to rate this tab
 
# A B C D E F G H I J K L M N O P Q R S T U V W X Y Z