Song name
# A B C D E F G H I J K L M N O P Q R S T U V W X Y Z

Celedonio Romero - Danza Andaluza 1 tab

Danza Andaluza #1
Music by Celedonio Romero
Tablature by E. Ceja - updated April 2004
e-mail: chingon93@excite.com

Tab key & info
 
Rasg.= rasquello
p= pull off
h= hammer on
Drop D tuning
Roman numerals indicate barres

**notes about the piece at end**

Allegro ritmico

  Rasg.....................
e|--)2--2--2--2--)0--0--0--0---------------------|
b|--(3--3--3--3--(2--2--2--2----3-2-0------------|
g|--)2--2--2--2--)0--0--0--0-----------2p0-------|
d|--(0--0--0--0--(2--2--2--2--0-------------4-2--|
a|--)0--0--0--0--)0--0--0--0---------------------|
d|--(0--0--0--0----------------------------------|

e|-------------------------------|--------------------------------------|
b|-------------------------------|---------------------------------2-3--|
g|--------0--2p0-----------------|------2--------------------0-2-4------|
d|--0-4-----------4--2--0--------|--0------4--0--------0-2-4------------|
a|---------------------------0---|------0--------0-2-4------------------|
d|--0-------------------0--------|--0---------0-------------------------|

                                   con gracia
   VII.........................                  VII
e|-)10--10--10--10--)9--9--9--9--|-----7p5--7---------7-------7p5--7--|
b|-(7----7---7---7--(8--8--8--8--|------------------7-----------------|
g|-)7----7---7---7--)9--9--9--9--|----------------7-------------------|
d|-(0----0---0---0--(7--7--7--7--|--------------0---------------------|
a|-)0----0---0---0--)0--0--0--0--|------------------------------------|
d| (0----0---0---0---------------|--0-----------------------0---------|

e|----------5-----7p5--7------------5-|--------------------------------------|
b|-------7------------------------7---|-------------0------------------------|
g|----7------------------------7------|-----2p1--2-----2--0------------------|
d|--------------------------0---------|-----------------------4--2p0---------|
a|--0---------------------------------|--------------------------------4--2--|
d|-------------0----------------------|--0-----------------------------------|

       II
e|-------------5----------------------------------|
b|---------2--------------------------------------|
g|------2--------------------0--------------------|
d|-------------------4-------------2------0-------|
a|--0---------------------------------------------|
d|----------------4-------5-----2------0----------|

                 VII                                                VII
e|-----7p5--7----------7------7p5--7--|-----------5-----7p5--7------------7--|
b|-------------------7----------------|--------7------------------------7----|
g|-----------------7------------------|-----7-------------------------7------|
d|---------------0--------------------|-----------------------------0--------|
a|------------------------------------|--0-----------------------------------|
d|--0----------------------0----------|---------------0----------------------|

e|--------------9--10--12--10--9------9h10--9--|
b|-----10--12----------------------12----------|
g|---------------------------------------------|
d|---------------------------------------------|
a|---------------------------------------------|
d|--0------------------------------------------|

e|----------------0----------------------0--|
b|--12--10--8--7--------3p2--3-------3------|
g|------------------------------------------|
d|--------------------------------0---------|
a|------------------------------------------|
d|--------------------0---------------------|

e|--------------------------------------|
b|--2h3---------------------------------|
g|--------2p0-----0--------0------------|
d|-------------4------2h4-----2p0-------|
a|--0--------------------------------0--|
d|--------------------------------------|

                                          II.................................
e|----2h3--3h4--4h5---5--------5-----5--|----5--5--5----3--3--3-----2--2--2--|
b|--------------------------------2-----|------------------------------------|
g|--------------------------------------|--------------2---------------------|
d|--------------------------------------|--------------------------4---------|
a|--------------------------0-----------|--0-----------------------0---------|
d|--0-----------------------------------|------------------------------------|

                          VII......
e|--2h3--4--5----2p0-------------10--|--5-----------5----------------3p2--5--|
b|----------------------------7------|------------------------0--------------|
g|-------------------------7---------|-----------0--------0------------------|
d|-----------------------------------|--------4------------------------------|
a|-------------0---------------------|----------------------------0----------|
d|--0------------------0-------------|-----0-----------5---------------------|

e|--2h3p2----0h2p0--------------------------------|
b|--------------------3h5p3----2h3p2--3-----------|
g|---------------------------------------------2--|
d|--------------------0----------------------4----|
a|-----------0-----------------0------------------|
d|--0------------------------------------0--------|

e|--------------------------------------------|-----------------------|
b|--------------------------------------------|-----------------------|
g|--2p4h2--0h2p0------------------------------|--------0--1--2-----0--|
d|----------------4h5p4--2h4p2--4h5p4--2h4p2--|--0--4-----------4-----|
a|--------------------------------------------|-----------------------|
d|--0---------------------------0-------------|--0--------------------|

e|-------------------|------------9--10--12--10--9--7--9h10----|
b|---------10---10---|----10--12-------------------------------|
g|--2----------------|-----------------------------------------|
d|-------------------|------------------------0----------------|
a|--0------0---------|-----------------------------------------|
d|-------------------|--0--------------------------------------|

e|--9----------12-------9-----7-----5--|--5h7--5--4--5------5----------5--|
b|-----12--10------10-------8-----7----|------------------8----------8----|
g|-------------------------------------|---------------------------6------|
d|-------------------------------------|----------------7-----------------|
a|--0---------------0------------------|-------------------------0--------|
d|-------------------------------------|--0-------------------------------|

                   II                                      
e|--7--8--7--5------3-------5--|--3--2--0---------------------2--|
b|--------------------2--------|-----------3--2-----3-------3----|
g|--0-------------------2------|--------------------------2------|
d|-----------------------------|---------------------------------|
a|---------------0-------------|------------------------0--------|
d|-----------------------------|-----------------0---------------|

e|------------9--10--12--10--9--7--9h10--|
b|----10--12-----------------------------|
g|---------------------------------------|
d|------------------------0--------------|
a|---------------------------------------|
d|--0------------------------------------|

                                   VII   
e|--9-----------------------0------)10--|
b|-----12--10--8--7--10--8---------(7---|
g|---------------------------------)7---|
d|---------------------------------(7---|
a|--0------------------------------)0---|
d|----------------0------------0---(0---|

  Rasg.....................
e|--)2--2--2--2--)0--0--0--0---------------------|
b|--(3--3--3--3--(2--2--2--2----3-2-0------------|
g|--)2--2--2--2--)0--0--0--0-----------2p0-------|
d|--(0--0--0--0--(2--2--2--2--0-------------4-2--|
a|--)0--0--0--0--)0--0--0--0---------------------|
d|--(0--0--0--0----------------------------------|

e|-----------------------------------|-------------------------------0--|
b|-----------------------------------|-----------------------0--2--3----|
g|-----------2--2p0------------------|------------------0--2------------|
d|-----0h4-----------4--2-------0h4--|----------0--2--4-----------------|
a|----------------------------0------|--0--2--4-------------------------|
d|--0----------------------0---------|----------------------------------|

e|----------5--------5---7--|--5-----------------------0---|
b|-----7h8-----7--8---------|-------------------0----------|
g|--7-----------------------|------------0--2---0---2--0---|
d|--------------------------|-------4----------------------|
a|----------0---------------|------------------------------|
d|--0-----------------------|----0-------------------------|

e|--2h3p2---0h2p0---------------------------|
b|---------------------3--2--3-------3------|
g|-------------------------------------2----|
d|------------------0--------------------4--|
a|----------0-------------------------------|
d|--0-----------------------------0---------|

                      VII......
e|-----7p5--7----------------7-----
b|------------------------7--------
g|---------------------7-----------
d|------------0--------------------
a|---------------------------------
d|--0------------------------------

   V............................    VII  
e|--7p5--7----------5-----7p5--7---------7--|
b|----------------7--------------------7----|
g|--------------7--------------------7------|
d|---------------------------------0--------|
a|------------0-----------------------------|
d|---------------------0--------------------|

      VII                  VII
e|----)10---10--12--10--9---9p7--------|
b|----(7--------------------8---10-----|
g|----)7--------------------9----------|
d|----(0--------------------7----------|
a|----)0----------------------------0--|
d|----(0-------------------------------|

                                    II..........................
e|--7--5-----------------------|---------2------5----5----3----3---|
b|--------8--7--5------3-------|-------3-----2----------2----------|
g|--------------------------2--|-----2------------4----------2-----|
d|-----------------------4-----|--0--------------------------------|
a|-----0-----------------------|-----------------------------------|
d|------------------0----------|-----------------------------------|

e|-----0----0------0-----0--|---------------2-----5--|
b|--------------------------|-----3-------3----------|
g|-------0------------------|-----------2------2-----|
d|--------------4-----2-----|---------4--------------|
a|--0-----------------------|------------------------|
d|--------------------------|--0---------------------|
 
     VII               VII
e|---)10--10--12--10---)9--|-----9------0--5h7--8-----|
b|---(7----------------(8--|---------8----------------|
g|---)7----------------)9--|--------------------------|
d|---(0----------------(7--|-----------------------0--|
a|---)0--------------------|--0-----------------------|
d|---(0--------------------|---------------0----------|

e|-8--10--8-----7------------)7--)7--)7---)9--|
b|--------------0------8-10--(8--(8--(8---(8--|
g|-------------------0-------)0--)0--)0---)0--|
d|----------0----------------(9--(9--(9---(9--|
a|--------------------------------------------|
d|--------------------------------------------|

e|--7p5--5--5---------5-------10-----|----7--9p7---------------------|
b|------------------7------10--------|------------10---------8--7----|
g|----------------7------------------|--0---------------7---------9--|
d|--------------0-----------------0--|-------------------------------|
a|------------------------0----------|---------------0-----0---------|
d|--0--------------------------------|-------------------------------|

e||-------------------)14--12--10--9--12--10------|
b||-------------------(10---------------------12--|
g||--7p6--------------)11-------------------------|
d||-------------0-----(0--------------------------|
a||-------------------)0-----------0--------------|
d||----------0--------(0--------------------------|

   V......................................
e|--5--------5-------5---------5----------|
b|---------8-------8---------7---------7--|
g|-------6-------6---------7---------7----|
d|----------------------------------------|
a|----0--------0--------------------------|
d|----------------------0---------0-------|
               
e|---------------)2--0-----------------|-----------------------------------|
b|----3----------(3-----3--2h5--3--0---|-----------------------------------|
g|----------2----)2--------------------|-----2------0----2--2p0--0---0--2--|
d|-------4-------(0--------------------|--------4------------------4-------|
a|---------------)0--------------------|--0------------0-------------------|
d|--0------------(0--------------------|--------0--------------------------|

e|--------------------------------------2---||
b|------------------------------------3-----||
g|----------0-----------------------2-------||
d|--4p2--4-----2--1--2--4---------4---------||
a|-------------0----------------0-----------||
d|--0-------------------------0-------------||

                                             VII
e|-------------0------------2-----------5-----------10--|
b|-----------2------------3----------3------------7-----|
g|--------0-------------2----------2------------7-------|
d|------2------------0-----------4------------0---------|
a|----0------------0-----------0------------0-----------|
d|--0------------0-----------0------------0-------------|

e|----------5-------------5----------------0------|
b|--------8---8---------7---7------------2---2----|
g|-----6---------6----7-------7--------0-------0--|
d|------------------------------------------------|
a|--0-------------------------------0-------------|
d|-------------------0----------------------------|

FINAL
     
e|--)2--2--2--2--)0--0--0--0--|
b|--(3--3--3--3--(2--2--2--2--|
g|--)2--2--2--2--)0--0--0--0--|
d|--(0--0--0--0--(2--2--2--2--|
a|--)0--0--0--0--)0--0--0--0--|
d|--(0--0--0--0---------------|

e|---------------------------|-------------------------------------|
b|------3--2--0--------------|-------------------------------------|
g|---------------2--0--------|----------2--2p0---------------------|
d|--0------------------4--2--|----0--4----------4--2---------0-----|
a|---------------------------|----------------------------0-----0--|
d|---------------------------|--0----------------------0-----------|

             II.................            VII..........          
e|-----------------------------2---------5-------10---)10------|
b|---------------------3----3--------3---------7------(7---)3--|
g|--------------2----2----2------------------7--------)7---(2--|
d|------0----4----4---------------4-------------------)0---)4--|
a|----0---0-------------------------------------------(0---(0--|
d|--0-------------------------------------------------)0---)0--|

Notes

I would really recommend listening to the piece before actually trying to
play it, mostly because I found some differences between how it is performed
(by none other than Pepe Romero) and how it is written down on the sheet music.
Some of the most noticeable differences are how the D and A7 chords are
rythmically strummed at the beginnig of the piece. Again, listening to the
piece will help clear up any misunderstandings. And most importantly the piece
is titled Danza Andaluza, in other words it is a dance so it is very lively
(Allegro) and joyful.

Tap to rate this tab
# A B C D E F G H I J K L M N O P Q R S T U V W X Y Z