Song name
# A B C D E F G H I J K L M N O P Q R S T U V W X Y Z

Celedonio Romero - Suite Andaluza - Tango tab

Tango, from Suite Andaluza 
Music by Celedonio Romero (1913-1996)
Tablature by E.Ceja - updated April 2004
e-mail: chingon93@excite.com

Key: C

Decidido                    Misterioso 
                            y muy Mecido     
                      
                      
                      Segno
                V  IV  V 
e|-)0--)0-)0----5-|-4--5-|---------0-|---------(1)p0---|---------0-|
b|-(1--(1-(1----5-|-5--5-|-------1---|---3---3-------1-|-------1---|
g|-)2--)2-)2----5-|-4--5-|-----2-----|---1---1---------|-----2-----|
d|-(2--(2-(2------|------|---2-------|-----3-----------|---2-------|
a|-)0--)0-)0--0---|----0-|-0---------|-2---------------|-0---------|
e|----------------|-0----|-----------|-----------------|-----------|

e|---12-10-(8)h(10)p8-----|-0-----0---|-13-12-10-------|-8--10-8-12-10-----|
b|------------------------|-1-0---3-1-|----------13-12-|-10-------------13-|
g|--------------------1-2-|-----2-----|----------------|-9-----------------|
d|------------------------|-----------|-0--------------|-------------------|
a|-0----------------------|-----------|----------------|-------------------|
e|------------------0-----|-----------|----------------|----------0--------|

           IX          X                                          
e|---------9--10-12-|-10-12-13-15-13-|-12------8-12-|-10-8-7-8------|
b|-12--10--10-------|-10-------------|----9--10-----|--------10-----|
g|---------9--------|-10-------------|--------------|-10-----9------|
d|-----10-----------|----------------|--------------|-----------9-7-|
a|------------------|----------------|--0-----------|---------------|
e|------------------|----------------|--------------|---------------|

e|-0-----------0-|---------0-|---------(1)p0---|---------0-|
b|-0---(3)p1-0---|-------1---|---3---3-------1-|-------1---|
g|---1-----------|-----2-----|---1---1---------|-----2-----|
d|---------------|---2-------|-----3-----------|---2-------|
a|---------------|-0---------|-2---------------|-0---------|
e|---------0-----|-----------|-----------------|-----------|

Key Change: A 

e|---------0-|---------0---------|-0-------|---------0---------|---------|
b|-------2---|-------------------|---------|-------------------|---------|
g|-----2-----|-(1)h(2)p1---1-----|---------|-(1)h(2)p1---------|---------|
d|---2-------|-----------4---4---|-2-4-2-4-|-----------4-2-----|--0------|
a|-0---------|-----------------2-|---------|---------------2-4-|----<7>--|
e|-----------|---------0---------|---------|---------0---------|---------|

e|---------0------------|---0------0-|-----0-(4)h(5)p4-2-0-|
b|------------------0---|-----9/12---|----10---------------|
g|-(1)h(2)p1------------|------------|-11------------------|
d|-----------4-2--------|-0----------|---------------------|
a|----------------2---4-|------------|---------------------|
e|---------0------------|------------|---------------0-----|

          II.......                     VII........
e|-2-0---(2)h(4)p2-0-|-12-13-14-------|-10p7-------|-14-15-16-------|
b|-3-2-3---------3-2-|----------13-14-|------7-----|----------12-13-|
g|-----4---------2---|----------------|----------9-|----------------|
d|-------------------|----------------|----------8-|----------------|
a|-------------------|----------------|--------9---|----------------|
e|-------------------|--0-------------|--7---------|----------------|
  
                                      VII..........
e|---------0-------|-12-13-14-------|-10-7---------|-14-15-16-12-13-14-|
b|--14--10---------|----------13-14-|------7-------|-------------------|
g|---------------7-|----------------|------------9-|-------------------|
d|---------------6-|----------------|----------8---|-------------------|
a|---0-------4/7---|----------------|--------9-----|-------------------|
e|-----------------|--0-------------|--7-----------|-------------------|

e|--9--7--------|
b|--------------|
g|--9--7--------|
d|--------------|
a|--------<12>--|
e|--------------|

Coda 

e|-9--10-12-10-12-13-|-10-8--6---6-|-----------|----0---------|
b|-10-------10-------|-10-10-8-8---|-----------|-----0--------|
g|-9--------10-------|-10-9--7-----|-----0-2-3-|--2---1-2-----|
d|-------------------|-------------|-2-3-------|---------0----|
a|-------------------|-------------|-----------|--0-------0---|
e|-------------------|-------------|-0---------|------------0-|

e|-9--10-12-10-12-13-|-10-8--6---6-|-------------|----0-------|
b|-10-------10-------|-10-10-8-8---|-------------|-----2----2-|
g|-9--------10-------|-10-9--7-----|-------------|------2---2-|
d|-------------------|-------------|-------------|-------2--2-|
a|-------------------|-------------|-0-1-3-------|-0----------|
e|-------------------|-------------|-------0-1-3-|------------|

             Con Salero 
             y Gracia
 
e|---------||---------0-----|---------0-----||-------0--------|
b|---3-----||---2-------2-3-|---3-------3/5-||------2-----2/7-|
g|---1-----||-----2---------|-----1---------||-----2----------|
d|---2---2-||-------2-------|---------------||----2-----2-----|
a|-----2---||-0-------------|-------2-------||-0--------------|
e|-0-------||---------------|-0-------------||----------------|

e|-----------------||-------0-----0-|--------|-(4)h(5)p5-2-0---------------|
b|--------3----3/9-||------2----2---|-(2)/10-|---------------(3)h(5)p3-2-3-|
g|-------1---------||-----2---------|--------|-----------------------------|
d|------2----------||----2----2-----|--------|-----------------------------|
a|-----2-----2-----||-0-------------|------0-|-----------------------------|
e|-0---------------||---------------|--------|---------0-------------0-----|

           Golpe 
e|-0-------|---||---------0-----|---------0---0-||--------------|
b|---------|---||---2-------2h3-|---3-------3---||------3---3/9-|
g|---------|---||-----2---------|-----1---------||-----1--------|
d|---------|-X-||-------2-------|-------2-------||----2---------|
a|---(2)/7-|---||-0-------------|---------------||---2----2-----|
e|---------|---||---------------|-0-------------||-0------------|

e|-------------0-0-1-|-2-------0-2-0-|-2-------0-2-3-|
b|-(2)/5-2-----------|---3-----------|---3-----------|
g|---------2---------|-----1---------|-----1---------|
d|-----------2-------|-------2-------|-------2-------|
a|-------------------|---------------|---------------|
e|-------------------|-0-------------|-0-------------|

   VII...........
e|---------------|---------0---0-|---------0---0-|-------------0-0-1-|
b|-9-------7-9-7-|-7---------7---|-7---------7---|-(2)/5-------------|
g|---7-----------|---7-----------|---7-----------|-------6-----------|
d|-----9---------|-----6---------|-----6---------|---------7---------|
a|-------7-------|-------7-------|-------7-------|-----0-----7-------|
e|-7-------------|---------------|-0-------------|-------------------|

                   VII....
e|---------0-2-3-|---------2-4-2-|-2-0-7-5-4-2-|
b|-7-------------|-9-------------|-3-----------|
g|---7-----------|---7-----------|-1---7-6-4-2-|
d|-----6---------|-----9---------|-2-----------|
a|-------7-------|-------7-------|-------------|
e|-0-------------|-7-------------|-------------|

e|---------0---0-|---------0---0-| From Segno
b|-7---------7---|-7---------7---| to Coda then 
g|---7-----------|---7-----------| Finale
d|-----6---------|-----6---------|
a|-------7-------|-------7-------|
e|-0-------------|-0-------------|

Finale 
                                                                   V
e|---------0-|---------(1)p0---|---------0-|-------------|------|-)5-|
b|-------1---|---3---3-------1-|-------1---|-------2-----|------|-(5-|
g|-----2-----|---1---1---------|-----2-----|-----2-------|------|-)6-|
d|---2-------|-----3-----------|---2-------|---2---------|------|-(7-|
a|-0---------|-2---------------|-0---------|-0-----------|-<12>-|-)7-|
e|-----------|-----------------|-----------|---------<7>-|------|-(5-|

Tap to rate this tab
 
# A B C D E F G H I J K L M N O P Q R S T U V W X Y Z