Song name
# A B C D E F G H I J K L M N O P Q R S T U V W X Y Z

Celedonio Romero - Copla tab

Copla, from Los Maestros  
Music by Celedonio Romero (1913-1996)
Tablature by E.Ceja - March 2004
e-mail: chingon93@excite.com

low d tuning 

Andante 
  
                             II        
e|---1-0h1p0-------|---0-1-3-5-3p1p0---|
b|-3---------3-2-3-|-3-------2-------3-|
g|-2---2-----------|---------2---------|
d|-3---------------|-0-----------------|
a|-----0-----------|---3-1---0---------|
d|-0-------------0-|-------------------|

                        ..........32nd notes ...............
e|-0-3h5-3h5p3-------0----3h5p3--------------3h5p3-----------|
b|-2-----------6-5-3-2--6------6-5p3-----5-6-------6-5-3-----|
g|-0---------------------------------6-7-----------------5p3-|
d|-----------------------------------------------------------|
a|-0-----------------0---------------0-----------------------|
d|-----------------------------------------------------------|

e|--------------10-8----|--------10h12p10-8-10-8-6-0-1-0-|--3--|
b|--------10-11------11-|-10-----10--------------8-------|--2--|
g|------9---------------|--------10--------------7-------|--3--|
d|---11-----------------|----7h8-------------------------|-----|
a|-0--------------------|--0-----------------------------|--1--|
d|----------------------|--------------------------------|-----|

  con sentimiento                 X......
e|-5h6p5-4-5-6-5h6p5---5----------------10-|-----------------------------|
b|-----------------------8------8----10----|-----------------------------|
g|---------------------------6----10-------|-----------------------------|
d|-------------------7-----7---------------|-0h2p0---0-2-0-----2p0-------|
a|-------------0---------------------------|-------4-------3-1-----3-1-0-|
d|-0---------------------------------------|---------------------------0-|

                  III.........................   X................
e|-------------0-----------|-------------------|-10h12p10-12-13-12--8-10-8-|
b|-----5p3---1---3-6-------|-5---5h6p5-3-5-3---|-10------------------------|
g|---3---------------------|-----------------5-|-10------------------------|
d|-0-----------------------|-------------------|----------------10--7------|
a|-------------------3h5-3-|-3-5---------------|---------------------------|
d|-3-------3-------3-------|-----------------3-|--0------------------------|

  V...................................  III...............
e|-----5-----5-----5-----5-----5-----5-|-----3-------------|
b|---6-----6-----6-----6-----6-----6---|---5---6p5-3-5-----|
g|-------------------------5-----7-----|-------------------|
d|-------5-----7-----8-----------------|-------------------|
a|-8-----------------------------------|-3-----------3-5-3-|
d|-------------------------------------|-------------------|

e|-3---0-----------|-----0-1-3-4-5-|---1-0h1p0-------|-----0---1-3-----5-|
b|-5---------------|---3---------2-|-3---------3-2-3-|---3-----------2---|
g|-----------------|-------------2-|-2---2-----------|-------------2-----|
d|---0-2h3p2-0h2p0-|---------------|-3---------------|-0-----------------|
a|-3---------------|-1-----------0-|-----0-----------|-------1-----0-----|
d|-----------------|---------------|-0-------------0-|-------------------|

e|-3---------------|---0-1-3-5-|-----1p0-3p1-3h5-6-------3-1p0-------|
b|-2---------------|---------2-|---3-----------------3h5-------3-----|
g|-2---------------|---------2-|---------------------------------5p3-|
d|-2-0-2-0h2p0-----|-----------|-0-----------------0-----------------|
a|-------------3-1-|-0---1---0-|-------------------------------------|
d|-----------------|-----------|-------------------------------------|

               Mas movido 
e|-----|-----|---1-0h1p0-------|---0-1-3-5-3p1p0---|
b|---2-|---3-|-3---------3-2-3-|-3-------2-------3-|
g|---0-|---2-|-2---2-----------|---------2---------|
d|---2-|---3-|-3---------------|-0-----------------|
a|-0---|-----|-----0-----------|---3-1---0---------|
d|-----|-0---|-0-------------0-|-------------------|

                        ..........32nd notes ...............
e|-0-3h5-3h5p3-------0----3h5p3--------------3h5p3-----------|
b|-2-----------6-5-3-2--6------6-5p3-----5-6-------6-5-3-----|
g|-0---------------------------------6-7-----------------5p3-|
d|-----------------------------------------------------------|
a|-0-----------------0---------------0-----------------------|
d|-----------------------------------------------------------|

e|--------------10-8----|--------10h12p10-8-10-8-6-0-1-0-|--3--|
b|--------10-11------11-|-10-----10--------------8-------|--2--|
g|------9---------------|--------10--------------7-------|--3--|
d|---11-----------------|----7h8-------------------------|-----|
a|-0--------------------|--0-----------------------------|--1--|
d|----------------------|--------------------------------|-----|

  con sentimiento                 X......
e|-5h6p5-4-5-6-5h6p5---5----------------10-|-----------------------------|
b|-----------------------8------8----10----|-----------------------------|
g|---------------------------6----10-------|-----------------------------|
d|-------------------7-----7---------------|-0h2p0---0-2-0-----2p0-------|
a|-------------0---------------------------|-------4-------3-1-----3-1-0-|
d|-0---------------------------------------|---------------------------0-|

                  III.........................   X................
e|-------------0-----------|-------------------|-10h12p10-12-13-12--8-10-8-|
b|-----5p3---1---3-6-------|-5---5h6p5-3-5-3---|-10------------------------|
g|---3---------------------|-----------------5-|-10------------------------|
d|-0-----------------------|-------------------|----------------10--7------|
a|-------------------3h5-3-|-3-5---------------|---------------------------|
d|-3-------3-------3-------|-----------------3-|--0------------------------|

  V...................................  III...............
e|-----5-----5-----5-----5-----5-----5-|-----3-------------|
b|---6-----6-----6-----6-----6-----6---|---5---6p5-3-5-----|
g|-------------------------5-----7-----|-------------------|
d|-------5-----7-----8-----------------|-------------------|
a|-8-----------------------------------|-3-----------3-5-3-|
d|-------------------------------------|-------------------|

e|-3---0-----------|-----0-1-3-4-5-|---1-0h1p0-------|-----0---1-3-----5-|
b|-5---------------|---3---------2-|-3---------3-2-3-|---3-----------2---|
g|-----------------|-------------2-|-2---2-----------|-------------2-----|
d|---0-2h3p2-0h2p0-|---------------|-3---------------|-0-----------------|
a|-3---------------|-1-----------0-|-----0-----------|-------1-----0-----|
d|-----------------|---------------|-0-------------0-|-------------------|

     pizz.....................  ligero 
e|-3---------------|---0-1-3-5-|-----1p0-3p1-3h5-6-------3-1p0-------|
b|-2---------------|---------2-|---3-----------------3h5-------3-----|
g|-2---------------|---------2-|---------------------------------5p3-|
d|-2-0-2-0h2p0-----|-----------|-0-----------------0-----------------|
a|-------------3-1-|-0---1---0-|-------------------------------------|
d|-----------------|-----------|-------------------------------------|

              pizz                           armonicos 
e|-----|-----|-----------------|-----------|-------------------------------|
b|---2-|---3-|-----------------|-----------|-------------------------------|
g|---0-|---2-|-----------------|---------2-|-------------------------------|
d|---2-|---3-|-0-2-0h2p0-------|-0-2-3-5---|-<12>-<14>-<12>----------------|
a|-0---|-----|-----------3-1-0-|-----------|----------------<15>-<13>-<12>-|
d|-----|-0---|-----------------|-----------|-------------------------------|

                          
          con ternura  V..................................
e|-------------0-1-0-|-----5-----5-----5-----5-----5-----5-|
b|-2h3p2-3-2-3-------|---6-----6-----6-----6-----6-----6---|
g|-2---------2-----3-|-------------------------5-----7-----|
d|-----------3-----2-|-------5-----7-----8-----------------|
a|-----------------3-|-8-----------------------------------|
d|-------------------|-------------------------------------|

  ....................................
e|-----5-----5-----5-----5-----5-----5-|
b|---6-----6-----6-----6-----6-----6---|
g|-5-----7-----5-----------------------|
d|-------------------8-----7-----5-----|
a|-------------------------------------|
d|-------------------------------------|

  ligero
e|-----------------------------|---|
b|---------------------------2-|-3-|
g|-------------0---2p0-3p2-2---|-2-|
d|-----2p0-3p2---3-------------|-3-|
a|-0h4---------------------0---|---|
d|-----------------------------|-0-|

Tap to rate this tab
 
# A B C D E F G H I J K L M N O P Q R S T U V W X Y Z