Song name
# A B C D E F G H I J K L M N O P Q R S T U V W X Y Z

Celesty - Power Of Stones tab

Heyy its me bradleishman14@live.com.au again with
ANOTHER celesty song which is also the same notes
for Reign Of Elements so yeh again done by ear
so dont be too harsh on me :)

Intro
E--------------------------------------------------------------------------|
B--------------------------------------------------------------------------|
G--------------------------------------------------------------------------|
D-7~--5-3--3--10~-7-5--5-5-5-5--7-7-7-7-7-7-7-7-7-7--3-3-3-3-3-3-3-3-3-3-3-|
A-7~--5-3--3--10~-7-5--5-5-5-5--7-7-7-7-7-7-7-7-7-7--3-3-3-3-3-3-3-3-3-3-3-|
E-5~--3-1--1--8-~-5-3--3-3-3-3--5-5-5-5-5-5-5-5-5-5--1-1-1-1-1-1-1-1-1-1-1-|

E-----------------------------------------------------|
B-----------------------------------------------------|
G-----------------------------------------------------|
D-10101010101010101010--5-5-5-5-5-5-5-5-5-5-5-5-5-5-5-|
A-10101010101010101010--5-5-5-5-5-5-5-5-5-5-5-5-5-5-5-|
E-8-8-8-8-8-8-8-8-8-8---3-3-3-3-3-3-3-3-3-3-3-3-3-3-3-|

E----------------------------------------------------------------|
B----------------------------------------------------------------|
G----------------------------------------------------------------|
D-7-7-7-7-7-7-7-7-7-7--3-3-3-3-3-3-3-3-3-3--10101010101010101010-|
A-7-7-7-7-7-7-7-7-7-7--3-3-3-3-3-3-3-3-3-3--10101010101010101010-|
E-5-5-5-5-5-5-5-5-5-5--1-1-1-1-1-1-1-1-1-1--8-8-8-8-8-8-8-8-8-8--|

E--------------------------------------------------------------------------|
B--------------------------------------------------------------------------|
G--------------------------------------------------------------------------|
D-5-5-5-5--3-5--7-7-7-7-7-7-7--7-7-7-7-7-7-7--7-7-7-7-7-7-7--7-7-7-7-7-7-7-|
A-5-5-5-5--3-5--7-7-7-7-7-7-7--7-7-7-7-7-7-7--7-7-7-7-7-7-7--7-7-7-7-7-7-7-|
E-3-3-3-3--1-3--5-5-5-5-5-5-5--5-5-5-5-5-5-5--5-5-5-5-5-5-5--5-5-5-5-5-5-5-|

Verse
E-------------------------------|
B-------------------------------|
G-------------------------------|
D-7-7-7-7-7-7-7-7-7-7--3--10--5-|X2
A-7-7-7-7-7-7-7-7-7-7--3--10--5-|
E-5-5-5-5-5-5-5-5-5-5--1--8---3-|

E--------------------------------------------------------------|
B--------------------------------------------------------------|
G--------------------------------------------------------------|
D-3-3-3-3-3-3-3-3-3-3--5-5-5-5-5-5-5-5-5-5---10--7-7--7-5-3--5-|
A-3-3-3-3-3-3-3-3-3-3--5-5-5-5-5-5-5-5-5-5---10--7-7--7-5-3--5-|
E-1-1-1-1-1-1-1-1-1-1--3-3-3-3-3-3-3-3-3-3---8---5-5--5-3-1--3-|

E---------------------|
B---------------------|
G---------------------|
D-7-7-7-7-7-7-7-7-7-7-|
A-7-7-7-7-7-7-7-7-7-7-|
E-5-5-5-5-5-5-5-5-5-5-|


And thats it up until the chorus guys hope i didnt make mistakes :)

Tap to rate this tab
 
# A B C D E F G H I J K L M N O P Q R S T U V W X Y Z