Song name
# A B C D E F G H I J K L M N O P Q R S T U V W X Y Z

Celia Cruz - Siboney tab

Help us improve GuitareTab! Take a short survey!
SIBONEY

|-----------------------------|-----------------------------|
|-------1-------1-------------|-------1-------1-------------|
|-----0---1-0-----1-0---------|-----0---1-0-----1-0---------|
|---1---------1-------1-3-0---|---1---------1-------1-3-0---|
|-3-------------------------3-|-3-------------------------3-|
|-----------------------------|-----------------------------|
                    

|-------------------------------------------|------------------------------|
|---0-3-1-3-1-0-------1-3-1-0---------------|-------1-------1--------------|
|-0-------------1-1-3---------1---0-1-3-1-0-|-----0---1-0-----1-0----------|
|-------------------------------3-----------|---1---------1-------1-3-0----|
|-------------------------------------------|-3-------------------------3--|
|-------------------------------------------|------------------------------|


|-----0---0-----------------------|---------------------------|
|-------3---3-1-0-3-1-0---------0-|-----3-1-3-1-0-------------|
|---0-------------------0-----0---|---0-----------2-0-2-0-----|
|-2-----------------------2-3-----|-3---------------------3-2-|
|---------------------------------|---------------------------|
|---------------------------------|---------------------------|


|-----0-1-0-----------------------|---------------------------|
|-----------3-1-0-3-1-0---------0-|-----3-1-3-1-0-------------|
|---0-------------------0-----0---|---0-----------2-0-2-0-----|
|-2-----------------------2-3-----|-3---------------------3-2-|
|---------------------------------|---------------------------|
|---------------------------------|---------------------------|


|---------------------|--------------------------------------|
|-1-------1-----------|-1-3-4-3-1----------------------------|
|---1-0----1-0--------|-----------3-1-0----------------------|
|-------1-----1-3-0-1-|-----------------0-3-1-0--------------|
|---------------------|-------------------------3------------|
|---------------------|--------------------------------------|

Siboney, yo te quiero yo me muero por tu amor.
Siboney, en tu boca la miel puso su dulzor.

Ven aqu, que te quiero y que todo tesoro eres t para m.
Siboney, al arrullo de tu palma pienso en ti.

Siboney de mis sueos si no oyes la queja de mi voz,
Siboney si no vienes me morir de amor.

Siboney de mis sueos te espero con ansia en mi caney,
Siboney si no vienes me morir de amor.

Oye el eco de mi canto de cristal,
no se pierda entre el ruido manigual.

------

Ernesto Lecuona is the real interpreter of this song.
Related for Siboney tab