Celina Ree - Se Dig Selv I Mig tab

Celina Ree - Se dig selv i mig


e |----------------|----------------|----------------|----------------|
H |-------3-------3|-------3-------3|-------3-------3|-------3-------3|
G |---0-------0----|---0-------0----|---0-------0----|---0-------0----|
D |-----4-------4--|-----4-------4--|-----4-------4--|-----4-------4--|
A |-3-------3------|-2-------2------|-3-------3------|-2-------2------|
E |----------------|----------------|----------------|----------------|


e |----------------|----------------|----------------|----------------|
H |-------3-------3|-------3-------3|-------3-------3|-------3-------3|
G |---0-------0----|---0-------0----|---0-------0----|---0-------0----|
D |-----4-------4--|-----4-------4--|-----4-------4--|-----4-------4--|
A |-3-------3------|-2-------2------|-3-------3------|-2-------2------|
E |----------------|----------------|----------------|----------------|
     Jeg loeber I moerket. Blaendet af det lys der braender mig.

e |----------------|----------------|----------------|----------------|
H |-------3-------3|-------3-------3|-------3-------3|-------3-------3|
G |---0-------0----|---0-------0----|---0-------0----|---0-------0----|
D |-----4-------4--|-----4-------4--|-----4-------4--|-----4-------4--|
A |-3-------3------|-2-------2------|-3-------3------|-2-------2------|
E |----------------|----------------|----------------|----------------|
     Jeg maerker min modstand, og ser at jeg er skroebelig.

e |----------------|----------------|----------------|----------------|
H |-------3-------3|-------3-------3|-------3-------3|-------3--------|
G |---0-------0----|---0-------0----|---0-------0----|---0------------|
D |-----4-------4--|-----4-------4--|-----4-------4--|-----4----------|
A |-3-------3------|-5-------5------|-3-------3------|-5-------5------|
E |----------------|----------------|----------------|----------------|
  Tag om mig, foel paa mig, se mig.

      G		      C
Se paa mig, foer jeg forsvinder
                  G         C
Foer livet tager livet ud af mig
         Em               G
Hold mig fast foer jeg forsvinder
            C
Ned af min egen moerke vej

Se dig selv i mig.


e |----------------|----------------|----------------|----------------|
H |-------3-------3|-------3-------3|-------3-------3|-------3-------3|
G |---0-------0----|---0-------0----|---0-------0----|---0-------0----|
D |-----4-------4--|-----4-------4--|-----4-------4--|-----4-------4--|
A |-3-------3------|-2-------2------|-3-------3------|-2-------2------|
E |----------------|----------------|----------------|----------------|


e |----------------|----------------|----------------|----------------|
H |-------3-------3|-------3-------3|-------3-------3|-------3-------3|
G |---0-------0----|---0-------0----|---0-------0----|---0-------0----|
D |-----4-------4--|-----4-------4--|-----4-------4--|-----4-------4--|
A |-3-------3------|-2-------2------|-3-------3------|-2-------2------|
E |----------------|----------------|----------------|----------------|
   Mit hjerte er pierced, og tatoverede taarer falder nu.

e |----------------|----------------|----------------|----------------|
H |-------3-------3|-------3-------3|-------3-------3|-------3-------3|
G |---0-------0----|---0-------0----|---0-------0----|---0-------0----|
D |-----4-------4--|-----4-------4--|-----4-------4--|-----4-------4--|
A |-3-------3------|-2-------2------|-3-------3------|-2-------2------|
E |----------------|----------------|----------------|----------------|
     Fra oejne der fader, lige foer de lukker i for

e |----------------|----------------|----------------|----------------|
H |-------3-------3|-------3-------3|-------3-------3|-------3--------|
G |---0-------0----|---0-------0----|---0-------0----|---0------------|
D |-----4-------4--|-----4-------4--|-----4-------4--|-----4----------|
A |-3-------3------|-5-------5------|-3-------3------|-5-------5------|
E |----------------|----------------|----------------|----------------|
     Jeg giver op, jeg siger fra, giv mig

      G		      C
Giv mig tid, til at forsvinde
                  G         C
Naar livet tager livet ud af dig
         Em               G
Hold mig fast foer jeg forsvinder
            C
Ned af min egen moerke vej


              Bm          Em
Selvom det er svaert at forstaa
             Bm           Em
Kan jeg vaere svag, kan jeg naa
                  Bm	C  D
At faa mig selv tilbage indeni


         G              C
Bliv hos mig foer jeg forsvinder
      G                     C
Foer livet tager livet ud af mig

      G		      C
Se paa mig, foer jeg forsvinder
                  G         C
Foer livet tager livet ud af mig
         Em               G
Hold mig fast foer jeg forsvinder
            C
Ned af min egen moerke vej


e |----------------|----------------|----------------|----------------|
H |-------3-------3|-------3-------3|-------3-------3|-------3-------3|
G |---0-------0----|---0-------0----|---0-------0----|---0-------0----|
D |-----4-------4--|-----4-------4--|-----4-------4--|-----4-------4--|
A |-3-------3------|-2-------2------|-3-------3------|-2-------2------|
E |----------------|----------------|----------------|----------------|
  Se dig selv i mig. Aahh

e |----------------|----------------|
H |-------3-------3|-3--------------|
G |---0-------0----|-0--------------|
D |-----4-------4--|-4--------------|
A |-3-------3------|-3--------------|
E |----------------|----------------|
Tap to rate this tab
 
# A B C D E F G H I J K L M N O P Q R S T U V W X Y Z