Song name
# A B C D E F G H I J K L M N O P Q R S T U V W X Y Z

Celine Dion - My Heart Will Go On Acoustic tab

E---3-3-3-3--3-3--3-5/7-5--3333-3--5--------------------------------------------|
B-----------2---2--------------2----3-------------------------------------------|
G-------------------------------------------------------------------------------|
D-------------------------------------------------------------------------------|
A-------------------------------------------------------------------------------|
E-------------------------------------------------------------------------------|

E-----3----5----7-8-7-5--7-8-7--5-3-2-3-3-2-3/5/7/5/3--------------------|
B-----------5------------------------------------------------------------|
G------------------------------------------------------------------------|
D------------------------------------------------------------------------|
A------------------------------------------------------------------------|
E------------------------------------------------------------------------|

read as
/=slide
Tap to rate this tab
 
# A B C D E F G H I J K L M N O P Q R S T U V W X Y Z