Song name
# A B C D E F G H I J K L M N O P Q R S T U V W X Y Z

Celine Dion - My Heart Will Go On tab

E||----------------------------|------8---------------------|
B||---6/8--8/10----11/10/8-----|--6/8-----------------------|
G||----------------------------|----------------------------|
D||----------------------------|----------------------------|
A||----------------------------|----------------------------|
E||----------------------------|----------------------------|



E||----------------------------|----------------------------|
B||-10/8/6---------------------|--6/8--8/10----11/10/8------|
G||-----------7---5------------|----------------------------|
D||----------------------------|----------------------------|
A||----------------------------|----------------------------|
E||----------------------------|----------------------------|


E||--------8-------------------|----------------------------|
B||---6/8----------------------|-10/13/15----13-10----------|
G||----------------------------|----------------------------|
D||----------------------------|----------------------------|
A||----------------------------|----------------------------|
E||----------------------------|----------------------------|


E||----------------------------|----------------------------|
B||-6--6-6--6/5/6--------------|---6/5/6----8-10/8----------|
G||----------------------------|----------------------------|
D||----------------------------|----------------------------|
A||----------------------------|----------------------------|
E||----------------------------|----------------------------|

E||----------------------------|----------------------------|
B||-6--6-6--6/5/6---8----------|6--6-6/5/6---6/5/6----8/10/8|
G||------------------7---------|----------------------------|
D||----------------------------|----------------------------|
A||----------------------------|----------------------------|
E||----------------------------|----------------------------|

E||----------------------------|
B||-6--6-6--6/5/6------8-------|      INTRO:D lml
G||---------------------7------|
D||----------------------------|
A||----------------------------|
E||----------------------------|


E||----------------------------|----------------------------|
B||---6--8-------13-11-10--8---|-10/11/10------8-6-5-6------|
G||------------9---------------|----------------------------|
D||----------------------------|----------------------------|
A||----------------------------|----------------------------|
E||----------------------------|----------------------------|

E||----------------------------|----------------------------|
B||-6-5-6-----8-10---11/10/8---|--6--------------------------|
G||----------------------------|----------------------------|
D||----------------------------|----------------------------|
A||----------------------------|----------------------------|
E||----------------------------|----------------------------|


CHORUS:D             metal up your ass!!
Tap to rate this tab
 
# A B C D E F G H I J K L M N O P Q R S T U V W X Y Z