Song name
# A B C D E F G H I J K L M N O P Q R S T U V W X Y Z

Celine Dion - Titanic tab

-------------------------------------------------------------------------------
			     CÚline Dion - Titanic
-------------------------------------------------------------------------------
Tabbed by: dadeyhor
Email:

Tuning:

e|--4---------7---------5---------7-------|
B|--5---------7---------5---------7-------|
G|--6---------8---------6---------8-------|
D|--6---------9---------7---------9-------|
A|--4---------9---------7---------9-------|
E|--4---X3----7---X3----5---X3----7---X3--|

************************************

| /   slide up
| \   slide down
| h   hammer-on
| p   pull-off
| ~   vibrato
| +   harmonic
| x   Mute note
| b   Bend
| pb  Pre-bend
| br  Bend release
| pbr Pre-bend release
| brb Bend release bend

************************************
Tap to rate this tab
# A B C D E F G H I J K L M N O P Q R S T U V W X Y Z