Song name
# A B C D E F G H I J K L M N O P Q R S T U V W X Y Z

Celine Dion - My Heart Will Go On tab

Hey Guys, what's up? I'm John nahir and that's my first Tab composition of the popular 
song "My heart will go on". on Ultimate Guitar. Hope u enjoy it.
Here is my email: Oussamanahir93@hotmail.com

Intro:

---5h7-9---10-9-7p5-5--7h12-12--10p9--7-0-4-0-5-----------------------|
----------------------------------------------------------------------|
----------------------------------------------------------------------|
----------------------------------------------------------------------|
----------------------------------------------------------------------|
----------------------------------------------------------------------|

---5h7-9---10-9-7p5-5--7h12-12--10h12--14-12-7------------------------|
----------------------------------------------------------------------|
----------------------------------------------------------------------|
----------------------------------------------------------------------|
----------------------------------------------------------------------|
----------------------------------------------------------------------|

Verse:


---5-----5-5---5----4-5------5-5---4-5------7h9-9--10-9--7p5--5-------|
-------5---------5---------5-------------5----------------------------|
-----4-------4-----------4-------4-----4------------------------------|
----------------------------------------------------------------------|
----------------------------------------------------------------------|
----------------------------------------------------------------------|


---5-----5-5---5----4-5--------5------0-------------------------------|
-------5---------5---------5------0-----------------------------------|
-----4-------4-----------4--------------------------------------------|
----------------------------------------------------------------------|
----------------------------------------------------------------------|
----------------------------------------------------------------------|


Chorus:




---5-----7----0--12--10--9p7---9-10-9--7--5-4-5--5-4-5--7h9--7--5-----|
----------------------------------------------------------------------|
----------------------------------------------------------------------|
----------------------------------------------------------------------|
----------------------------------------------------------------------|
----------------------------------------------------------------------|

---10-9-7p5-5--7h12-12--10p9--7-0-4-0-5----5h7-9---10-9-7p5-5---------|
----------------------------------------------------------------------|
----------------------------------------------------------------------|
----------------------------------------------------------------------|
----------------------------------------------------------------------|
----------------------------------------------------------------------|

--7h12-12--10h12--14-12-7---------------------------------------------|
----------------------------------------------------------------------|
----------------------------------------------------------------------|
----------------------------------------------------------------------|
----------------------------------------------------------------------|
----------------------------------------------------------------------|


Contact me for any mistake.
Tap to rate this tab
 
# A B C D E F G H I J K L M N O P Q R S T U V W X Y Z