Song name
# A B C D E F G H I J K L M N O P Q R S T U V W X Y Z

Celine Dion - Its All Coming Back To Me Now tab

:D I hopeya' Like it :D it's my 2nd time to post tabs here :D
I just used my ear to make this tab, so i hope you like it.. :D
You can add me on facebook- Sajda Roa :D Ty! :D

e|----------7-6-7-|
B|---7-7-7--------|
G|----------------|
D|----------------|
A|----------------|
E|----------------|
^^ Repeat this in 2 times. 
Then
e|----------7-6-7-|---7-9-11-12--11-9-7-6--|
B|---7-7-7--------|------------------------|
G|----------------|------------------------|
D|----------------|------------------------|
A|----------------|------------------------|
E|----------------|------------------------|
Tap to rate this tab
# A B C D E F G H I J K L M N O P Q R S T U V W X Y Z