Song name
# A B C D E F G H I J K L M N O P Q R S T U V W X Y Z

Celine Dion - My Heart Will Go On tab

-------------------------------------------------------------------------------
                     My Heart Will Go On - Celine Dion
-------------------------------------------------------------------------------
Tabbed by: Marcus Åström
E-mail: marcuc.c.astrom@gmail.com

Tuning: Standard eBGDAE

e|----------------------9----------------------------------------------------|
B|---7-9s11---11p9-7-9------11p9-7-------------------------------------------|
G|---------------------------------6-4---------------------------------------|
D|---------------------------------------------------------------------------|
A|---------------------------------------------------------------------------|
E|---------------------------------------------------------------------------|

e|---------------------9-------9-11-9----------------------------------------|
B|---7-9s11---11p9-7-9------11--------9--------------------------------------|
G|---------------------------------------------------------------------------|
D|---------------------------------------------------------------------------|
A|---------------------------------------------------------------------------|
E|---------------------------------------------------------------------------|

e|---------------------------------------------------------------------------|
B|---7-7-7-7p6h7---7p6h7---9-11p9---7-7-7-7p6h7-7----------------------------|
G|------------------------------------------------6--------------------------|
D|---------------------------------------------------------------------------|
A|---------------------------------------------------------------------------|
E|---------------------------------------------------------------------------|

e|-----------9-7-------------------------------------------------------------|
B|---7-9---------11-9---11-12-11---9-7-6-7---6-6-7---9-11---12-11-9---7-7----|
G|--------6------------------------------------------------------------------|
D|---------------------------------------------------------------------------|
A|---------------------------------------------------------------------------|
E|---------------------------------------------------------------------------|


************************************

| s   slide
| h   hammer-on
| p   pull-off

************************************
Tap to rate this tab
# A B C D E F G H I J K L M N O P Q R S T U V W X Y Z