Song name
# A B C D E F G H I J K L M N O P Q R S T U V W X Y Z

Cellador - Forever Unbound tab

Cellador
Forever Unbound
Tabbed by: Andrew R Garcia (anrewg5000@hotmail.com)

[Tune down 1/2 step]

Lead part

(A)
D#-|------------------------------------------------------|
A#-|--------------------------11----10----8--6--5---------|
F#-|----------10--------10--14----------------------------|
C#-|----12-----------12-----------------------------------|
G#-|------------------------------------------------------|
D#-|------------------------------------------------------|

(B)

D#-|-----------------------------------------------------------|
A#-|-----------------------------------------------------------|
F#-|----14--12--10-------12--10-----------10-------10----------|
C#-|----------------14------------14--12-------14-------10-----|
G#-|-----------------------------------------------------------|
D#-|-----------------------------------------------------------|

(C)

D#-|--------------------------------------------------------|
A#-|--------------------------------------------------------|
F#-|----10--10---12--14-----12---10-------------------------|
C#-|--------------------------------14----------------------|
G#-|--------------------------------------------------------|
D#-|--------------------------------------------------------|

2x normal picking
2x tremolo picking (TP) 

on 4th rep (with TP):

(A)
.........................................................

(B)
.........................................................

(C)

        TP         TP  TP TP   TP 
D#-|----------------------------------------------------------------------|
A#-|----------------------------------------------------------------------|
F#-|----10---------17--15--14-------14------------------------------------|
C#-|---------------------------17-------17--15--14---17--15--14-----------|
G#-|-------------------------------------------------------------15--17---|
D#-|----------------------------------------------------------------------|

                   
               A.H. 
D#-|--------------------------------------------------------------------|
A#-|--------------------------------------------------------------------|
F#-|--------------------------------------------------------------------|
C#-|-----12-----12-----12--10-------15--14--15--17--15--14---12---------|
G#-|--------------------------------------------------------------------|
D#-|--------------------------------------------------------------------|


Hope that makes enough sense :)
Tap to rate this tab
# A B C D E F G H I J K L M N O P Q R S T U V W X Y Z