Song name
# A B C D E F G H I J K L M N O P Q R S T U V W X Y Z

Cellador - Leaving All Behind tab

-------------------------------------------------------------------------------
         	    LEAVING ALL BEHIND SOLO - Cellador
-------------------------------------------------------------------------------
Tabbed by: Andrew Garcia
Email:     garcia.gtr@gmail.com

Tuning: Eb (1/2 step down)


SOLO (Part I)

d#|---------------------------------------------------------------------------|
A#|---------------------------------------------------------------------------|
F#|---17--15--14--15--14--12--14--12------------------------------------------|
C#|-----------------------------------12--14-12--10-12-10--8--10--------------|
G#|---------------------------------------------------------------------------|
D#|---------------------------------------------------------------------------|

d#|---------------------------------------------------------------------------|
A#|---------------------------------------------------------------------------|
F#|---------------------------------------------------------------------------|
C#|---------------------------------------------------------------------------|
G#|---12-13-12-10-12-10--8--10----8--10--8--7--5------------------------------|
D#|---------------------------------------------------------------------------|

d#|--------------------------------------8-6-5-6-5---5------------------------|
A#|-----------------------------8-6-5-6------------8---8-6-8-6-5-4b-----------|
F#|-----------------7-5----5-7------------------------------------------------|
C#|----------5-7-8-------7----------------------------------------------------|
G#|---5-7-8-------------------------------------------------------------------|
D#|---------------------------------------------------------------------------|

d#|------------------------------------------------------17-----------22\-----|
A#|-/18--17--15------15-----15-17-18--17-18-20--17-18-20----20-18-17----------|
F#|--------------17b----17----------------------------------------------------|
C#|---------------------------------------------------------------------------|
G#|---------------------------------------------------------------------------|
D#|---------------------------------------------------------------------------|


d#|---15-17-18-15-17-15--13-15-13--12-13-12-10-12-10--------------------------|
A#|---------------------------------------------------------------------------|
F#|---------------------------------------------------------------------------|
C#|---------------------------------------------------------------------------|
G#|---------------------------------------------------------------------------|
D#|---------------------------------------------------------------------------|

d#|--10-12-13---12-10---------------------------------------------------------|
A#|--------------------13-11-10-13-11-10----10-11-13-11-10-11-----------------|
F#|--------------------------------------x------------------------------------|
C#|---------------------------------------------------------------------------|
G#|---------------------------------------------------------------------------|
D#|---------------------------------------------------------------------------|
Tap to rate this tab
# A B C D E F G H I J K L M N O P Q R S T U V W X Y Z