Song name
# A B C D E F G H I J K L M N O P Q R S T U V W X Y Z

Celldweller - Frozen tab

-------------------------------------------------------------------------------
			     Frozen - Celldweller
-------------------------------------------------------------------------------
Tabbed by: st4tic
Email: staticassassin@gmail.com

Tuning: Drop D (DADGBe)

This is the guitar "solo" played during the breakdown / middle 8 at 4:45
The guitar on the record uses a great deal of delay, and you may want to let
all the notes ring to create that dischord feel.
On the slides, just slide down from the fret shown to anywhere that sounds
good.

I love this riff :D

e|---------------------------------------------------------------------------|
B|-----------------6-6-6-6-6-6-6-6-8-8-8-8-8-8-8-8---------------------------|
G|-5-5-5-5-5-5-5-5---------------------------------8-8-8-8-8-8-8-8-----------|
D|---------------------------------------------------------------------------|
A|---------------------------------------------------------------------------|
E|---------------------------------------------------------------------------|

e|---------------------------------------------------------------------------|
B|-----------------6-6-6-6-6-6-6-6-------------------------------------------|
G|-5-5-5-5-5-5-5-5-----------------\8----------------------------------------|
D|---------------------------------------------------------------------------|
A|---------------------------------------------------------------------------|
E|---------------------------------------------------------------------------|

e|---------------------------------------------------------------------------|
B|-----------------6-6-6-6-6-6-6-6-8-8-8-8-8-8-8-8---------------------------|
G|-5-5-5-5-5-5-5-5---------------------------------7-7-7-7-7-7-7-7-----------|
D|---------------------------------------------------------------------------|
A|---------------------------------------------------------------------------|
E|---------------------------------------------------------------------------|

e|---------------------------------------------------------------------------|
B|-----------------6-6-6-6-6-6-6-6-------------------------------------------|
G|-5-5-5-5-5-5-5-5-----------------\7----------------------------------------|
D|---------------------------------------------------------------------------|
A|---------------------------------------------------------------------------|
E|---------------------------------------------------------------------------|

| /  slide up
| \  slide down
| h  hammer-on
| p  pull-off
| ~  vibrato
| +  harmonic
| x  Mute note
===============================================================================
Tap to rate this tab
# A B C D E F G H I J K L M N O P Q R S T U V W X Y Z