Song name
# A B C D E F G H I J K L M N O P Q R S T U V W X Y Z

Celldweller - Tainted tab

Chorus
E|-----------------|-----------------|-----------------|-----------------|
B|-----------------|-----------------|-----------------|-----------------|
G|-----------------|-----------------|-----------------|-----------------|
D|-----------------|-----------------|-----------------|-----------------|
A|-5-5-5-5-5-5-5-5-|-5-5-5-5-5-5-5-5-|-7-7-7-7-7-7-7-7-|-2-2-2-2-2-2-2-2-|
E|-5-5-5-5-5-5-5-5-|-5-5-5-5-5-5-5-5-|-7-7-7-7-7-7-7-7-|-2-2-2-2-2-2-2-2-|

E|-----------------|-----------------|-----------------|-----------------|
B|-----------------|-----------------|-----------------|-----------------|
G|-----------------|-----------------|-----------------|-----------------|
D|-----------------|-----------------|-----------------|-----------------|
A|-7-7-7-7-7-7-7-7-|-7-7-7-7-3-3-3-3-|-2-2-2-2-2-2-2-2-|-2-3-2-3-3-7-3-5-|
E|-5-5-5-5-5-5-5-5-|-5-5-5-5-3-3-3-3-|-2-2-2-2-2-2-2-2-|-2-3-2-3-3-5-3-5-|


Verse:


E|-----------------|
B|-----------------|
G|-----------------|  x4
D|-----------------|
A|---7-------------|
E|---7-------------|
Tap to rate this tab
# A B C D E F G H I J K L M N O P Q R S T U V W X Y Z