Song name
# A B C D E F G H I J K L M N O P Q R S T U V W X Y Z

Celldweller - Switchback tab

Help us improve GuitareTab! Take a short survey!
Drop C + rest 1 step down

Intro + Chorus:
-------------------------------------|
-------------------------------------|
-------------------------------------|   2 Times
-------------------------------------|
-------------------------------------|
-00-2-0-2-22-3-2-3-33-5-3-5-55-7-5-7-|

-------------------------------------|
-------------------------------------|
-------------------------------------|   2 Times
-00-2-0-2-22-3-2-3-33-5-3-5-55-7-5-7-|
-00-2-0-2-22-3-2-3-33-5-3-5-55-7-5-7-|
-00-2-0-2-22-3-2-3-33-5-3-5-55-7-5-7-|

Bridge:
------------------------------------|
------------------------------------|
------------------------------------|   4 Times
-0-2------------333-5---------------|
-0-2------------333-5---------------|
-0-2------------333-5---------------|

After Second Chorus something else...
Related for Switchback tab